Thought Industry - My Famous Mistake Chords & Tabs

 

My Famous Mistake Chords & Tabs

Thought Industry Chords & Tabs

Version: 1 Type: Chords 0 ratings
1 star 2 stars 3 stars 4 stars 5 stars
comments

My Famous Mistake Chords

#----------------------------------PLEASE NOTE---------------------------------#
#This file is the author's own work and represents their interpretation of the #
#song. You may only use this file for private study, scholarship, or research. #
#------------------------------------------------------------------------------#
#

Date: Thu, 23 Oct 1997 11:59:24 -0700 (MST)
From: Eric W Schlelein 
Subject: TAB: 'My Famous Mistake' by 'Thought Industry'


MY FAMOUS MISTAKE--THOUGHT INDUSTRY

from 1997's "Black Umbrella" album.

Metal Blade  3984-14131-2

Lyrics and Music by Brent Oberlin



Written and Transcribed by Eric Schlelein

email eric@u.arizona.edu



Tempo = around 63 beats per minute

First, tune your low E string down to D. Let's rock.



{rhythm figure 1} (clean toned guitar)

e----------------------------|---------------------------|

B----------------------------|---------------------------|

G------------2------------2--|------------2------------2-|

D---------0------------0-----|---------0------------0----|

A------4------------4--------|------4------------4-------|

D---4------------0-----------|---4------------0----------|



Screw yesterday, or two hours back.

Because the pubs have kicked me out again,

And the Christmas lights make me pissed.

I stumble through the snow into a dimestore Nativity Scene

I fell asleep on baby Jesus with my boots on Joseph's back.

	And sang...



{rhythm figure 2} (both guitars distorted)

(guitar 1)

e--------2--2--------2--2----|--------2--2--------2--2--|

B--------2--2--------2--2----|--------2--2--------2--2--|

G--------2--2--------2--2----|--------2--2--------2--2--|

D----------------------------|--------------------------|

A----------------------------|--------------------------|

D--4--4--------0--0----------|--4--4--------0--0--------|

                             |                          |
[ Tab from: http://www.guitartabs.cc/tabs/t/thought_industry/my_famous_mistake_crd.html ]
(guitar 2) Harmonics:        |                          |

e-------12-12-------12-12----|-------12-12-------12-12--|

B--7-----------7-------------|--7-----------7-----------|

G----------------------------|--------------------------|

D----------------------------|--------------------------|

A----------------------------|--------------------------|

D----------------------------|--------------------------|



"Ooh ah la la.  Got nothing left to lose.  'Cept my spite now."



{rhythm figure 1}

Snow has turned to rain while I dreamt I was falling

A stick to the ribs can cause the drunken dead

So this cop has his finger 'round my neck screamin'

"Blah blah blah.  Let's see that license.

Blah blah blah.  How could you do this?"

Christmas Eve is a beautiful day to have breakfast in the tank.

        And sing...



{rhythm figure 2}

"Ooh ah la la.  Got nothing left to lose.  'Cept my spite now."



(guitar 1)

e--------------------------|--------------------------|

B--------------------------|--------------------------|

G--------------------------|--------------------------|

D--4--4--4--2--0--0--0-----|--4--4--4--2--0--0--0-----|

A--4--4--4--2--0--0--0-----|--4--4--4--2--0--0--0-----|

D--4--4--4--2--0--0--0-----|--4--4--4--2--0--0--0-----|

                           |                          |

(guitar 2)                 |                          |

e--2--2--2--0--2--2--2-----|--2--2--2--0--2--2--2-----|

B--2--2--2--0--3--3--3-----|--2--2--2--0--3--3--3-----|

G--2--2--2--1--2--2--2-----|--2--2--2--1--2--2--2-----|

D--------------------------|--------------------------|

A--------------------------|--------------------------|

D--------------------------|--------------------------|



{rhythm figure 2}

"Ooh ah la la.  Got nothing left to lose.  'Cept my spite now."



{rhythm figure 1}

Got my spite around to keep me warm for you.

  
Comments