Thornley - Clever Chords & Tabs

 

Clever Chords & Tabs

Thornley Chords & Tabs

Version: 1 Type: Tab 0 ratings
1 star 2 stars 3 stars 4 stars 5 stars
comments

Clever Tab

   
-----------------------------------------------------------
			     Clever - Thornley
-----------------------------------------------------------
Tabbed by: Mikey Dyer
Email:

Tuning: B F# B D# E G#

G|--------10----12-10----10--------------------------------|
E|-----13----13-------13-----------------------------------|
D|--11-----------------------------------------------------|
B|---------------------------------------------------------|
F|---------------------------------------------------------|
B|---------------------------------------------------------|

e|---------------------------------------------------------|
B|---------------------------------------------------------|
G|---------------------------------------------------------|
D|---------------------------------------------------------|
A|--7-7--7910---3-3--50----------3b------------------------|
E|--7-7--7910---3-3--50------33-3--------------------------|
[ Tab from: http://www.guitartabs.cc/tabs/t/thornley/clever_tab.html ]
e|---------------------------------------------------------|
B|---------------------------------------------------------|
G|---------------------------------------------------------|
D|---------------------------------------------------------|
A|-77-33-0--7-7-7910---3-3--05----------------------------|
E|-77-33-0--7-7--7910---3-3--05----------------------------|

e|---------------------------------------------------------|
B|---------------------------------------------------------|
G|---1-----1----2-----4------------------------------------|
D|---------------------------------------------------------|
A|---------------------------------------------------------|
E|-22--0202--033--0505-------------------------------------|

e|---------------------------------------------------------|
B|---------------------------------------------------------|
G|-5--7----------------------------------------------------|
D|-5--7--7--0----------------------------------------------|
A|-3--5--7--0----------------------------------------------|
E|-------7--0----------------------------------------------|

| /  slide up
| \  slide down
| h  hammer-on
| p  pull-off
| ~  vibrato
| +  harmonic
| x  Mute note
===============================================================================
Comments