Thornley - Beautiful Chords & Tabs

 

Beautiful Chords & Tabs

Thornley Chords & Tabs

Version: 1 Type: Tab 0 ratings
1 star 2 stars 3 stars 4 stars 5 stars
comments

Beautiful Tab

   
-------------------------------------------------------------------------
                            THORNLEY- Beautiful
-------------------------------------------------------------------------

Tabbed by: Tyler Greig
e-mail: gtheleadguitarist@hotmail.com

Drop D tuning


Intro/verse:
[ Tab from: http://www.guitartabs.cc/tabs/t/thornley/beautiful_tab.html ]
   A   E   B
e|-0---0---0---|
B|-2---0---0---|
G|-2---1---4---|
D|-2---2---4---|
A|-0---2---2---|
D|-------------|

Chorus: (but what could be more beautiful...)

  
e|----------------------|
B|----------------------|
G|--6---9---------------|
D|--6---9---9---7--6----|
A|--4---7---9---7--6----|
D|----------9---7--6----|

Bridge: (beautiful, slipping away)
*(rhythm not shown on 9s)
e|---------------------|
B|---------------------|
G|-777-777-777-777-----|
D|-777-777-777-777--9--|
A|-555-555-555-555--9--|
D|------------------9--|
Comments