Thornley - All Comes Out In The Wash Chords & Tabs

 

All Comes Out In The Wash Chords & Tabs

Thornley Chords & Tabs

Version: 2 Type: Tab 0 ratings
1 star 2 stars 3 stars 4 stars 5 stars
comments

All Comes Out In The Wash Tab

   
----------------------------------------------------------------------------
		ALL COMES OUT IN THE WASH - Thornley
----------------------------------------------------------------------------

Tabbed by: Tyler Greig
Email: gtheleadguitarist@hotmail.com


| /  slide up
| \  slide down
| h  hammer-on
| p  pull-off
| v  vibrato
| *  harmonic
| x  Mute note
| ~  let ring
| b  bend
| r  release bend


Tuning: Drop d, down 1 and a half steps (b F# b E C# G# or something.)


Intro
|---------------------12------------------------14-|
|--------13--------13----13--------12--------13----|
|-----14----14--12--------------12----12--14-------|
|--14------------------------12--------------------|
|--------------------------------------------------|
|--------------------------------------------------|

Verse (clean electric on bridge pickup)
|-0--0--0-0-0--0--0--00-0--0--0-0-0--3---|   |-----------------|
|-5--5--5-5-5--5--5--55-5--5--5-5-5--5-7-|   |-----------------|
|-5--5--5-5-5--5--5--55-5--5--5-5-5--5-5-|   |-----------------|
|-5--5--5-5-5--5--5--55-5--5--5-5-5--5-5-|   |-5-5-5-5-5-5-5-5-|
|-3--3--3-3-3--3--3--33-3--3--3-3-3--3-3-|   |-5-5-5-5-5-5-5-5-|
|----------------------------------------|x6 |-5-5-5-5-5-5-5-5-|
PM                                             . . . . . . . .

[ Tab from: http://www.guitartabs.cc/tabs/t/thornley/all_comes_out_in_the_wash_tab_ver_2.html ]
Chorus (rhythm not shown)            doo doo dada doo doo oh
|----------------------------------|--------------------------|
|----------------------------------|--------------------------|
|----------------------------------|--------------------------|
|-7----3----5----0----7----3----5--|--7*--7*--0----7*--7*--0--|
|-7----3----5----0----7----3----5--|----------0------------0--|
|-7----3----5----0----7----3----5--|----------0------------0--| repeat first part

Verse
Chorus


Bridge
|---------------------------------------------------------------------|
|---------------------------------------------------------------------|
|-5-5-5-5-5-5-5-5-------------------5-5-5-5-5-5-5-5-------------------|
|-5-5-5-5-5-5-5-5-----4--------4----5-5-5-5-5-5-5-5--5/7-5-4--5/7-5-4-|
|-3-3-3-3-3-3-3-3---3---3----3---3--3-3-3-3-3-3-3-3-------------------|
|-----------------0--------0------------------------------------------|

|---------------------------------------------------------------------|
|---------------------------------------------------------------------|
|-5-5-5-5-5-5-5-5-------------------5-5-5-5-5-5-5-5-------------------|
|-5-5-5-5-5-5-5-5-----4--------4----5-5-5-5-5-5-5-5-5-5-5-5-5-5-5-5---|
|-3-3-3-3-3-3-3-3---3---3----3---3--3-3-3-3-3-3-3-3-5-5-5-5-5-5-5-5---|
|-----------------0--------0------------------------5-5-5-5-5-5-5-5---|
PM                                                  . . . . . . . . 
 
Verse

Final Chorus (just a little different)
                                    doo doo dada doo doo oh
|---------------------------------|-------------------------|
|---------------------------------|-------------------------|
|---------------------------------|-------------------------|
|-7----3----5----0----7----3----5-|-7*--7*--0----7*--7*--0--|
|-7----3----5----0----7----3----5-|---------0------------0--|
|-7----3----5----0----7----3----5-|---------0------------0--| whole thing x3, then first part again

Outro (rhythm not shown)
|--------------------|
|--------------------|
|--------------------|
|-7----3----5--------|
|-7----3----5--------|
|-7----3----5--------| x4

End with:
|----|
|----|
|----|
|----|
|-/5-|
|----|



===========================================================================
Comments