Thirteen Senses - Saving Chords & Tabs

 

Saving Chords & Tabs

Thirteen Senses Chords & Tabs

Version: 1 Type: Tab 0 ratings
1 star 2 stars 3 stars 4 stars 5 stars
comments

Saving Tab

   
Hey it's my first post. If anyone can help me out with this B? chord I would appreciate it.

Great Song - Great Band

Thirteen Senses
Saving
Capo 3rd Fret

Intro - Acoustic Guitar

Am Em / B? / C G/ F /

Verse
Am Em B?
I see so little time, my eyes are crossed, my hands are tied,
C G F
And all I want to do is that great thing,
Am Em B?
I never see a passer-by, my skin so cold it's turned to ice,
C G F
And everything I do, I want leaving me.

Chorus - Acoustic Guitar

G / Fm / C / G

G Fm C G
And I guess it's a might with the light that you fight,
G Fm C G
You turn a blind eye to the world in the sky,

Riff 1 - Distortion Guitar
[ Tab from: http://www.guitartabs.cc/tabs/t/thirteen_senses/saving_tab.html ]
E|--------------------------------|
B|-3-3-3-3-3-1-3-1----------------|
G|----------------4-4-4-4-4-4-4-4-|
D|--------------------------------|
A|--------------------------------|
E|--------------------------------|

Verse 2 - Acoustic Guitar

I didn't know in your lies, above your head you hold so high,
And all my energy is behind it,
A dream for the passers-by, my eyes are wasted here tonight,
I never tried to get across the feeling.

Chorus - Acoustic Guitar

Riff 2 - Distortion Guitar

E|----------3-1-0-----|-------------1------|
B|-3-5-3-1-5------5---|-3-5-3-1-3-5--------|
G|--------------------|--------------------|
D|--------------------|--------------------|
A|--------------------|--------------------|
E|--------------------|--------------------|

Riff 3 - Banjo

E|----------------|-----------------|
B|-3-------3----3-|-3-------3-------|
G|---1---2---2----|---2---2---2---2-|
D|-----3------3---|-----3-------3---|
A|----------------|-----------------|
E|----------------|-----------------|

B?
E|-----|
B|-1---|
G|-2---|
D|-3---|
A|-----|
E|-----|
Comments