Thirsty Merc - Someday Someday Chords & Tabs

 

Someday Someday Chords & Tabs

Thirsty Merc Chords & Tabs

Version: 1 Type: Chords 0 ratings
1 star 2 stars 3 stars 4 stars 5 stars
comments

Someday Someday Chords

   
Artist: Thirsty Merc
Title: Someday, Someday  
Date: Tues, 22nd March 2005
From: Will Page (Aus)
UPDATED! 

I saw that this song by Thirsty Merc wasn't tabbed yet, so here it is:


Standard tuning EADGBe

i = index finger
m = middle finger
a = anular finger
p = thumb


[Verse:] (play bass with p, followed by i,m,a together) 

Chords

    G   G\F#  Em  Am  (add9)   D 

e---3----3----0---0----0-------2-----| 
B---3----3----0---1----0-------3-----| 
G---0----0----0---2----2-------2-----| 
D---0----0----2---2----2-------0-----|  x2 
A---2----2----2---0----0-------x-----| 
E---3----2----0---x----x-------x-----|



[Pre Chorus:] (play C chords with bass thumb followed by i,m,a together)

Chords


   C   D   C   D   G   G\F#  Em7   

e--0---2---0---2---3----3----3---| 
B--1---3---1---3---3----3----3---| 
G--0---2---0---2---0----0----0---| 
D--2---0---2---0---0----0----2---| 
A--3---x---3---x---2----2----2---| 
E--x---x---x---x---3----2----0---|

"While I'm gone..."



   C   D   C   D   Em    Em7        F   
[ Tab from: http://www.guitartabs.cc/tabs/t/thirsty_merc/someday_someday_crd.html ]
e--0---2---0---2---0-0-0-3-3-3-3-3--1-1-1-1-1-1-1-1---| 
B--1---3---1---3---0-0-0-3-3-3-3-3--1-1-1-1-1-1-1-1---| 
G--0---2---0---2---0-0-0-0-0-0-0-0--2-2-2-2-2-2-2-2---| 
D--2---0---2---0---2-2-2-2-2-2-2-2--3-3-3-3-3-3-3-3---| 
A--3---x---3---x---2-2-2-2-2-2-2-2--3-3-3-3-3-3-3-3---| 
E--x---x---x---x---0-0-0-0-0-0-0-0--1-1-1-1-1-1-1-1---|
  
"Just wait and see..."



[Chorus]

Chords

   G  Em7  C   D

e--3---3---0---2---|
B--3---3---1---3---|
G--0---0---0---2---|  x2
D--0---2---2---0---| 
A--2---2---3---x---|
E--3---0---x---x---|

"Someday.someday"



[Verse 2]

| G  G\F#  Em   Am  (add9)  D |  (x2) 



[Pre Chorus]

| C  D  C  D   |   
|              |
| G  G\F#  Em7 |
|              |
| C  D  C  D   |
|              | 
| Em Em7   F   |


[Chorus]

| G  Em7  C  D |  (x2)


[Bridge]

(same as Pre Chorus)

| C  D  C  D   |   
|              |
| G  G\F#  Em7 |
|              |
| C  D  C  D   |
|              | 
| Em Em7   F   |



[Chorus]

| G  Em7  C  D |  (x10)


[Outro] 

| D   C   G  |


Thats it. any comments or questions, 
please feel free to email me - CRU53@hotmail.com
Comments