Third Try - Im Outside Chords & Tabs

 

Im Outside Chords & Tabs

Third Try Chords & Tabs

Version: 1 Type: Bass Tab 0 ratings
1 star 2 stars 3 stars 4 stars 5 stars
comments

Im Outside Bass Tab

Song:I'm Outside
Band:Third Try
Album:Third Try EP
By:Andrew Buckley
E-mail:Futureshooter69@hotmail.com
Notes:I love this band and would hitch hike, Indiana Jones Style, in a plane, Sharing a very
small space with a very large elephant with Piles, Just to see them play live.
Notes:The number of notes here are not the number of notes in the song, there just rough,
i couldnt be arsed counting.


Intro/Post-Corus;Bass Don't come in till halve way thru     
G:------------------------------------------------------------------------------------------------|
D:------------------------------------------------------------------------------------------------|
A:3-3-3-3-3-3-3-3/5-------------------------------------------------------------------------------| x2  
E:------------------5-5-5-5-5-5-5-5-3-1-1-1-1-1-1-1-1-1-1-1-1-4-4-4-4-4-4-4-4-4-3-3-3-3-3-3-3-3-3-|


Verse/
G:---------------------------------------------------------------------------------------------|
D:---------------------------------------------------------------------------------------------|
A:3-3-3-3-3-3-3-3------------------------------------------------------------------------------| x2  
E:----------------5-5-5-5-5-5-5-5-1-1-1-1-1-1-1-1-1-1-1-1-4-4-4-4-4-4-4-4-4-3-3-3-3-3-3-3-3-3-|
[ Tab from: http://www.guitartabs.cc/tabs/t/third_try/im_outside_btab.html ]
Per-Corus/
G:----------------------------------------------------------------------------------------------|
D:----------------------------------------------------------------------------------------------|
A:3-3-3-3-3-3-3-3-------------------------------------------------------------------------------| x2 ()=Dont play first time 
E:----------------5-5-5-5-5-5-5-5-1-1-1-1-1-1-1-1-1-1-1-1-3-3-3-3-3-3-3-3-(4-4-4-4-4-4-4-4-4-4)-|

Corus/
G:------------------------------------------------------------------------------------|
D:------------------------------------------------------------------------------------|
A:3-3-3-3-3-3-3-3-3-3-3-3-3-3-3-3-3-3-3-3---------------------------------------------|  
E:----------------------------------------5-5-5-5-5-5-5-5-5-5-5-5-5-5-5-5-5-5-5-5-5-5-|

G:------------------------------------------------------------------------------------|
D:------------------------------------------------------------------------------------|
A:3-3-3-3-3-3-3-3-3-3-3-3-3-3-3-3-3-3-3-3---------------------------------------------| x3  
E:----------------------------------------3-3-3-3-3-3-3-3-3-3-3-3-3-3-3-3-3-3-3-3-3-3-|

Intro/Post-Corus x2
verse x2
Pre-Corus x2
Corus x2
Intro/Post-corus x2 end on A:3

Questions, Comments, Trans-atlantic, animal shipping numbers, E-mail at top of page please!


Thrid try are a kick ass band Hailing from Temecula CA, listen to the music first by searching
 for them on napster, Viva la resistance!
Comments