Third Try - Credits Chords & Tabs

 

Credits Chords & Tabs

Third Try Chords & Tabs

Version: 1 Type: Bass Tab 0 ratings
1 star 2 stars 3 stars 4 stars 5 stars
comments

Credits Bass Tab

Song:Credits	
Band:Third try
Album:Third Try EP
By:Andrew Buckley
E-mail:Futureshooter69@hotmail.com
Comments: I love this band and would sell organs to get money for plane ticket to America just to see them live. 
Notes:The number of notes here are not the number of notes in the song, there just rough, i couldnt be arsed counting.


Intro/Bass comes in late
G:-------------------------------------------------------------------|
D:-------------------------------------------------------------------|
A:(3-3-3-3-3-3-3-3-3-3-3)--------------------------------------------| x2 () Not played first time 
E:-----------------------5-5-5-5-5-5--3-3-3-3-3-3--1-1-1-1-1-1-1-1-1-|
[ Tab from: http://www.guitartabs.cc/tabs/t/third_try/credits_btab.html ]
Verse/
G:--------------------------------------------------------------------------|
D:--------------------------------------------------------------------------|
A:3-3-3-3-3-3-3-3-3-3-3-----------------------------------------------------| x2  
E:----------------------5-5-5-5-5-5-5-5--3-3-3-3-3-3-3-3--1-1-1-1-1-1-1-1-1-|

Pre-Corus
G:--------------------------------------------------------------------------|
D:--------------------------------------------------------------------------|
A:-----------------------------------3-3-3-3-3-3-3-3-3----------------------| x2 () Not played second time
E:5-5-5-5-5-5-5-5-5-1-(1-1-1-1-1-1-1-------------------3-3-3-3-3-3-3-3-3-3)-|

Corus/
G:----------------------------------------------------------------------|
D:----------------------------------------------------------------------|
A:3-3-3-3-3-3-3-3-*-3-3-3-3---------------------------------------------| x2  *=Stop
E:-------------------------5-5-5-5-5--3-3-3-3-3-3-3-3-*-3-3-3-3-3-3-3-3-|

Verse x2
pre-corus x2
Courus x6 but the last 4 time no stops

Questions, Comments, Organ donation numbers, E-mail at top of page please!


Thrid try are a kick ass band Hailing from Temecula CA, listen to the music first by searching
 for them on napster, Viva la resistance!







Comments