Third Eye Blind - Slow Motion Chords & Tabs

 

Slow Motion Chords & Tabs

Third Eye Blind Chords & Tabs

Version: 1 Type: Bass Tab 0 ratings
1 star 2 stars 3 stars 4 stars 5 stars
comments

Slow Motion Bass Tab

Slow Motion- Third Eye Blind (Bass Tab)

Tried My Very Best! It is Correct! This is my first tab. Give me some feedback please
so I know if I should do anymore tabs. Thanks and Enjoy!

No bass in the intro, just guitar, but once it starts to fade then you come in. 

Verse:
|-----------------------------------|
|-----------------------------------|
|---7------2------0-----------------|   3x 
|------------------------2----------|
        4th time
|-----------------------------------|
|-----------------------------------|
|---7------2-----0-----------2------| Last note 
|------------------------2----------|  staccato


Chorus:
|-----------------------------------|
|-----------------------------------| 2x 
|--7-7-----2------------------------|
|---------------2-------------------|
          3rd Time
|-----------------------------------|
|-----------------------------------|
|--7-7-----2----4----4--------------|
|-----------------------------------|


 And at home... My sister's eating...
[ Tab from: http://www.guitartabs.cc/tabs/t/third_eye_blind/slow_motion_btab.html ]
|-----------------------------------|
|-----------------------------------|
|---0-----2----4-4---0--------------|
|-----------------------------------|


I shut the door to her moaning...

|-----------------------------------|
|-----------------------------------|
|--0-----2----4-4-4-----------------|
|-----------------------------------|

See my neighbor...

|-----------------------------------|
|-----------------------------------|
|--0---2----------------------------|
|------------2----------------------|





There's an arc to his fist...

|----------------------------------------------------------------|
|----------------------------------------------------------------|
|--0-0-0-0-0-0-0-0--2-----4-----2-----4-----2-make it short-----|
|----------------------------------------------------------------|


Outro:
|-----------------------------------|
|-----------------------------------|
|--2--2--2--2------7----------------|
|-----------------------------------|


Order:

Verse
Chorus
Verse
Chorus
And at home... My sister's eating...
I shut the door to her moaning...
See my neighbor...
There's an arc to his fist...
Verse
Chorus
Outro
Comments