Third Eye Blind - Semi Charmed Life Chords & Tabs

 

Semi Charmed Life Chords & Tabs

Third Eye Blind Chords & Tabs

Version: 6 Type: Tab 0 ratings
1 star 2 stars 3 stars 4 stars 5 stars
comments

Semi Charmed Life Tab

Song: semi-charmed life

Artist: third eye blind

this is the right way  to play the song although i didnīt tab the middle guitars.

Intro:

e--------------------------------------------------------------
b--------------------------------------------------------------
g------------------7-7-7-7-7-7-x-x-5-5-5-x-x-5-5-5-x-x-5-5-x-x-
d--5-5-5-5-5-5-x-x-7-7-7-7-7-7-x-x-5-5-5-x-x-5-5-5-x-x-5-5-x-x-
a--5-5-5-5-5-5-x-x-5-5-5-5-5-5-x-x-3-3-3-x-x-3-3-3-x-x-3-3-x-x-
E--3-3-3-3-3-3-x-x---------------------------------------------

Verese 1:
same as intro but with complete chords (G-D-C).(try to play only
the first 4 strings)

Chorus:
same as intro

Verse 2:
Same as verse 1

Bridge:
[ Tab from: http://www.guitartabs.cc/tabs/t/third_eye_blind/semi_charmed_life_tab_ver_6.html ]
e----------------------------------------------------
b----------------------------------------------------
g-7--7---7-7---5--5---5-5----------------------------     x4   
d-7--7---7-7---5--5---5-5----------------------------
a-5--5---5-5---3--3---3-3----------------------------
E----------------------------------------------------

Chorus

Verse 3: Iin this verse  the guitar does an arpegio in the chords of the verse.
(G D C)but later in begins to play as in the chorus.

Bridge 2 
e--------------------------------------------------------------------
b--------------------------------------------------------------------
g-7--7---7-7---5--5---5-5------------------7--7---7-7--5--5---5-5----
d-7--7---7-7---5--5---5-5-------5-5-5-5-5--7--7---7-7--5--5---5-5----X3
a-5--5---5-5---3--3---3-3---x3--5-5-5-5-5--5--5---5-5--3--3---3-3----
E-------------------------------3-3-3-3-3----------------------------

VERSE 4: the guitar is played with some effect but does the same as in verse 3.

Chorus

Verse 5

Chorus: until end
Comments