Third Eye Blind - Never Let You Go Chords & Tabs

 

Never Let You Go Chords & Tabs

Third Eye Blind Chords & Tabs

Version: 2 Type: Tab 2 ratings
1 star 2 stars 3 stars 4 stars 5 stars
comments

Never Let You Go Tab

    i say the other ways on here and i say they were wrong,so here is 
two versions of it.


   Song:Never Let You Go
Artist: 3eb
Tabbed by: steven


  
  Intro/Verse
------------|------------------|----------------------------------------------
------------|------------------|----------------------------------------------
------------|-11/13\11--9--6-6-|-11/13\11--9-6-6-4----------------------------
--9---------|------------------|----------------------------------------------
--7--9--7-7-|------------------|----------------------------------------------
-----7--5-5-|------------------|----------------------------------------------
Guitar 1     Guitar 2                                                                              
(there are a million ways to play that lead riff..in the video Stephan plays)
------------------------------------------------------------------------------
-7b9r7p5-----7b9r7p5----------------------------------------------------------
---------6-6---------6-6-4----------------------------------------------------
------------------------------------------------------------------------------
------------------------------------------------------------------------------
------------------------------------------------------------------------------
[ Tab from: http://www.guitartabs.cc/tabs/t/third_eye_blind/never_let_you_go_tab_ver_2.html ]
Chorus
===
Guitar 2 (Kevin)                    Guitar 1 (Stephan)
----------------------------------|-------------------------------------------
----------------10-10-------------|-------------------------------------------
-9-9------------9--9--------------|-------------------------------------------
-9-9--9-9-------7--7-----9--------|-9-9--------------------9------------------
-7-7--9-9----------------7---9----|-7-7--9-9-------7-7-----7----9-------------
------7-7--------------------7----|------7-7-------5-5----------7-------------
 turn around go back on each other  turn around go back on each other         

First Breakdown
-----------------------------|------------------17-|--------------------------
-----------------------------|---------------------|--------------------------
-----------------------------|---------------------|-11---------------13-11---
--9-9-9-9-9-9--9-9-9---------|---------------------|--------------------------
--7-7-7-6-6-6--7-x-7---7-7-7-|---------------------|--------------------------
-----------------7---5-5-5-5-|---------------------|--------------------------
                               wild screech on--^    ^repeatedly then         

------------------------------------------------------------------------------
------------------------------------------------------------------------------
------------------------------------------------------------------------------
--7--6--4--6------------------------------------------------------------------
-------------------7-----7----------------------------------------------------
----------------------7-----5-------------------------------------------------
 wrong..its wrong..its wrong..                                                


Second, Quieter Breakdown
====

Guit. 2       Guitar 1
-----7-----7-|----------------------------------------------------------------
---9-----9---|----------------------------------------------------------------
-9-----9-----|----------------------------------------------------------------
-------------|----------------------------------------------------------------
-------------|-7--------------------------------------------------------------
-------------|----7--5--------------------------------------------------------
  repeat with..                                                               

  








Comments