Third Eye Blind - Never Let You Go Chords & Tabs

 

Never Let You Go Chords & Tabs

Third Eye Blind Chords & Tabs

Version: 12 Type: Tab 0 ratings
1 star 2 stars 3 stars 4 stars 5 stars
comments

Never Let You Go Tab

Third Eye Blind
Song: "Never Let You Go"


INTRODUCTION:
GUITAR 2: Clean Electric Guitar

e|---------------------------------|
B|--7--7---2-2------7--7---2-2-2---|
G|--9--7---2-2------9--7---2-2-2---|
D|--9--9---2-2------9--9---2-2-2---| (REPEAT THREE TIMES)
A|--7--9---0-0------7--9---0-0-0---|
E|--7--7------------7--7-----------|

GUITAR 1: Clean Electric Guitar w/slight Overdrive

e|--2-4-2-0------2-4-2-0------|
B|----------2------------2-0--|
G|----------------------------|
D|----------------------------| (REPEAT TWICE)
A|----------------------------|
E|----------------------------|



VERSE
Guitar 2
e|---------------------------------|
B|--7--7---2-2------7--7---2-2-2---|
G|--9--7---2-2------9--7---2-2-2---|
D|--9--9---2-2------9--9---2-2-2---| (REPEAT)
A|--7--9---0-0------7--9---0-0-0---|
E|--7--7------------7--7-----------|


CHORUS
Guitar 2
e|---------------------------------|
B|--7--7---2-2------7--7---2-2-2---|
G|--9--7---2-2------9--7---2-2-2---|
D|--9--9---2-2------9--9---2-2-2---| (REPEAT)
A|--7--9---0-0------7--9---0-0-0---|
E|--7--7------------7--7-----------|

Guitar 1
e|---------------------------------|
B|--7--7--5-------7--7--5-5-5------|
G|--9--7--5-------9--7--5-5-5------|
D|--9--9--7-------9--9--7-7-7------| (REPEAT)
A|--7--9--7-------7--9--7-7-7------|
E|--7--7--5-------7--7--5-5-5------|
[ Tab from: http://www.guitartabs.cc/tabs/t/third_eye_blind/never_let_you_go_tab_ver_12.html ]
INTERLUDE
Guitar 1
e|--2-4-2-0------2-4-2-0------|
B|----------2------------2-0--|
G|----------------------------|
D|----------------------------| (REPEAT TWICE)
A|----------------------------|
E|----------------------------|

BRIDGE
Guitar 2                  GUITAR 1 (Echo, Reverb, Slight/Overdrive)
e|-----|                 e|--------------------------|
B|-----|                 B|-2~~~-2~~~~~-2-4-2--------|
G|-----|                 G|--------------------------|
D|--9--| (REPEAT)        D|--------------------------|
A|--9--|                 A|--------------------------|
E|-----|                 E|--------------------------|

                            ****You'll hear Guitar 1 come in

VERSE
e|---------------------------------|
B|--7--7---2-2------7--7---2-2-2---|
G|--9--7---2-2------9--7---2-2-2---|
D|--9--9---2-2------9--9---2-2-2---| (REPEAT)
A|--7--9---0-0------7--9---0-0-0---|
E|--7--7------------7--7-----------|



CHORUS
GUITAR 2
e|---------------------------------|
B|--7--7---2-2------7--7---2-2-2---|
G|--9--7---2-2------9--7---2-2-2---|
D|--9--9---2-2------9--9---2-2-2---| (REPEAT)
A|--7--9---0-0------7--9---0-0-0---|
E|--7--7------------7--7-----------|

GUITAR 1
e|--2-4-2-0------2-4-2-0------|
B|----------2------------2-0--|
G|----------------------------|
D|----------------------------| (REPEAT TWICE)
A|----------------------------|
E|----------------------------|


BREAKDOWN
GUITAR 2
e|-----7-|
B|-7-7---|
G|-------| REPEAT
D|-------|
A|-------|
E|-------|


VERSE REPEAT

INTERLUDE REPEAT


ENDING (part to word beat)
e|--------|
B|-2-2--2-|
G|-4-4--2-| REPEAT
D|-4-4--2-|
A|-2-2--0-|
E|--------|



There it is...I'm only 14 but I think I got it
Comments