Third Eye Blind - Never Let You Go Chords & Tabs

 

Never Let You Go Chords & Tabs

Third Eye Blind Chords & Tabs

Version: 11 Type: Tab 0 ratings
1 star 2 stars 3 stars 4 stars 5 stars
comments

Never Let You Go Tab

   
The True  way to play "Never Let You Go"
swim32dude@yahoo.com      Send me comments

Standard Tuning, have fun this is the best song! written by Stephan Jenkins


Intro (and verse) Courds go like this:
e---------------------------------------|
B---------------------------------------|
G---------------------------------------|        Guitar 1 plays that throughout the verse.
D--9--------------9---------------------|
A--7--9--7-7------7--9--7-7-7-----------|
E------7--5-5----------7--5- 5-5--------|

Intro (and verse) riff goes like this:
e---------------------------------|
B--7h9-7---------7h9-7------------|
G----------9-6------------9-6--4--|       Guitar 2 plays that at certain times during 
vese along
D---------------------------------|        with Guitar 1's Chourds.
A---------------------------------|
E---------------------------------|

Reapeat intro verse throuought the verse.
When Stephan Starts sayin "I'll Never Let You Go" over and over again Guitar 2 has a
riff and it plays untill the Chorus:

e-----------------------------|
B-----------------------------|
G-----------------------------|
D--9-9----9-9-----------------|
A-----------------------------|
E-------7-------7-5-5---------|

Then after Stephan stops saying "I'll Never Let You Go" it goes into the Chorus:

e-----------------------------|
B--------------10-10-10--9----|
G-------------- 9---9--9---9--|                Guitars 1 and 2 play this.
D--9-----------7---7--7---9---|
A--7--9-9------------------7--|
E------7-7--------------------|

Then it goes back into the verse. ( "Well you say that I changed, well maybe i did")
the verse just reapeats what it did before way up there^^^^^^^^^^^^^^^^^^^^^^^^^^

When Stephan Starts sayin "I'll Never Let You Go" the guitar 2 riff starts again.

And then it goes back into the chorus. and the chorus reapeats itself.

Then there is 1 segment of the verse.

Then the bridge:

e-----------------------------------------------------------------------|
B-----------------------------------------------------------------------|
G--------------------------------2-2-2-----------------------  Guitar 1-|
D--6-6-6--4-4-4--2-2-2--0-2-2-2-----------------------------------------|
A--7-7-7--6-6-6--4-4-4--0-----------------------------------------------|
E******************************************

Guitar 2 comes in, in the bridge when Stephan says, "and all the time goes on" and it is 
this:
[ Tab from: http://www.guitartabs.cc/tabs/t/third_eye_blind/never_let_you_go_tab_ver_11.html ]
e-----------------------------------------------------------|
B-----------------------------------------------------------|
G--11b^--11-11h13--11   Do the bend nice and slow. Guitar 2-|
D-----------------------------------------------------------|
A-----------------------------------------------------------|
E-----------------------------------------------------------|

Then it is Guitar 1 (With More Distortion than usual) Playin the intro riff alone:

e-----------------------------------------------------------|
B-----------------------------------------------------------|
G-----------------------------------------------------------|
D--9--------------9----------------                Guitar 1-|
A--7--9--7-7------7--9--7-7-7-------------------------------|
E------7--5-5----------7--5-5-5-----------------------------|

Then the instruments come back in and play the verse.
but short after there is an arpeggio. Use this chord over and over to step up to it.:

e---------------------------------------|
B---------------------------------------|
G---------------------------------------|
D---------------------------------------|
A--7--7--7--7--7--7--7--7--7--7---------|
E--5--5--5--5--5--5--5--5--5--5---------|

Just improvise on the arpeggio, the chourds are:

     G:              Cadd9:         D:

     e--3             e--3           e--2-|
     B--3            B--3          B--3---|
     G----           G---           G--2--|
     D----            D--2          D-----|
     A--2            A--3          A------|
     E--3            E***          E***

Then The chorus comes back in.

and the song ends with the Guitar 1 riff from the verse.

LYRICS!!!

Never Let You Go

There's every good reason for letting you go
She's sneaky and smoked out
And it's starting to show
I never let you go

I never let you turn around, our back on each other
That's a good idea, break a promise to your mother
Turn around your back on each other

You say that I've changed
Well maybe I did
But even if I changed
What's wrong with it
I never let you go

I never let you turn around, our back on each other
That's a good idea, break a promise to your mother
Turn around your back on each other

And our friends are gone and gone
And all the time moves on and on
And all I know is it's wrong, it's wrong
If there's a reason, it's lost on me
Maybe we'll be friends, I guess we'll see
I never let you go

I never let you turn around, our back on each other
That's a good idea, break a promise to your mother
Turn around your back on each other

I remember the stupid things, the mood rings, the bracelets and the beads
Nickels and dimes, yours and mine, did you cash in all your dreams
You don't dream for me, no
You don't dream for me, no
But I still feel you pulse like sonar from the days in the waves
That girl is like a sunburn
I would like to save
The girl is like a sunburn
I would like to save
She's like a sunburn
Comments