Third Eye Blind - Never Let You Go Chords & Tabs

 

Never Let You Go Chords & Tabs

Third Eye Blind Chords & Tabs

Version: 1 Type: Tab 0 ratings
1 star 2 stars 3 stars 4 stars 5 stars
comments

Never Let You Go Tab

#----------------PLEASE NOTE--------------------#
This file is the author's own work and 
represents their interpretation of the
song. You may only use this file for private 
study, scholarship, or research.

Author/Artist: Third Eye Blind
Title: Never Let You Go
Album: Blue
Transcribed by: Tim Walling
Email: wallingt@hartwick.edu

This is my first tab, but the song is fairly easy 
and you only have to learn three different riffs
 that repeat throughout the whole song.  The 
chorus riff may be a little off, so if anyone knows 
what sounds better then feel free to email me.
[ Tab from: http://www.guitartabs.cc/tabs/t/third_eye_blind/never_let_you_go_tab.html ]
--------------------------------------------------
--------------------------------------------------
-9---------------9------------------------------
-9--9--7-7-----9--9--7-7-7----------------
-7--9--7-7-----7--9--7-7-7----------------
-----7--5-5---------7--5-5-5----------------
 This is repeated thourhgout the song.                                        

-------------------------------------------------
-7--9--7----------7--9--7-------------------
------------9--6-------------9--6--4--------
------------------------------------------------
------------------------------------------------
------------------------------------------------
 Riff played by second guitar.                                                

-----------------------------------------------
-----------------------------------------------
----------------------------------------------
-11-----9-9----12-12---11-11--9----------
-9-------9-9----10-10---9--9----7----------
-9-------7-7----10-10---9--9----7-----------
 Chorus ("Turn around....")                                                   

Comments