Third Eye Blind - Narcolepsy Chords & Tabs

 

Narcolepsy Chords & Tabs

Third Eye Blind Chords & Tabs

Version: 1 Type: Bass Tab 0 ratings
1 star 2 stars 3 stars 4 stars 5 stars
comments

Narcolepsy Bass Tab

These are the bass tabs to a somewhat unknown song called "Narcolepsy"
by Third Eye Blind. It's a good song, track 2 on their album. Warning:
The song can get fast and quite tricky. I'd like to thank my bass
teacher Doug Fritz for tabbing this for me, along with all the other
stuff I send in.
~Mike~

Slides will be shown by / and \. / means a slide up, and \ means a
slide down.
                                            Repeat 4x
|-----------------------------------------------------|
|---7///////----14----------------------------------*|
|---5-------s----12----0-0-0-0-----------------------*|
|-----------------------------------------------------|

|-----------------------------------------------------|
|--12--11---------------------------------------------|
|---------12--S--0-0-0-0------------------------------|
|-----------------------------------------------------|

|--------9--S-----------------------------------------|
|-----7-----------------------------------------------|
|--5-------------0-0-0-0------------------------------|
|-----------------------------------------------------|

|-----------------------------------------------------|
|--12-11----------------------------------------------|
|--------11--12--S--0-0-0-0---------------------------|
|-----------------------------------------------------|

|------4----------------------------------------------|
|----7----7-------------------------------------------|
|--5--------------------------------------------------|
|-----------------------------------------------------|

|-----------------------------------------------------|
|-----------------------------------------------------|
|-----------------------------------------------------|
|--5-5-0-5--S---2-2-0-2---2-2-------------------------|

|-----------------------------------------------------|
|-----------------------------------------------------|
|-----------------------------------------------------|
|--5-5-7-7--S---2-2-0-2---2-2-------------------------|

|-----------------------------------------------------|
|-----------------------------------------------------|
|------------------------4-S--14----------------------|
|--5-5-7-7--S---2-2-0-2-------------------------------|

|-----------------------------------------------------|
|-----------------------------------------------------|
|--14-14-14-14-14-14-14-14----------------------------|
|----------------------------7-7-7-7-7-7-7-7----------|


|-----------------------------------------------------|
|------------------------12---------------------------|
|-----------------------------------------------------|
|--10-10-10-10-10-10-10-------------------------------|

|**---------------------------------------------------|
|-----------------------------------------------------|
|--5-5-5--4-4-4--2-2-2-------------5-5-5--------------|
|----------------------5-5-4-5-5-5--------------------|

|-----------------------------------------------------|
|-----------------------------------------------------|
|--4-5-4-5-7-7---------------7--9-11-12---------------|
|--------------5-5-4-5-5-5----------------------------|
[ Tab from: http://www.guitartabs.cc/tabs/t/third_eye_blind/narcolepsy_btab.html ]
|-----------------------------------------------------|
|----------------------7------------------------------|
|--------------------9---7-5-4------------------------|
|--9-9-9-9--9-9-9-9-----------------------------------|


|-----------------------------------------------------|
|-----------------------------------------------------|
|-----------------------------------------------------|
|--5-5-4-5-5-5-----------------repeat from ** 2x------|

|-----------------------------------------------------|
|-----------------------------------------------------|
|-----------------------------------------------------|
|--5-4-0-2---2-2-0-2-2--5-7--0-2--2-2-0-2-2-----------|

|-----------------------------------------------------|
|-----------------------------------------------------|
|-----------------------------------------------------|
|--5-4-0-2---2-2-0-2-2---7-7-7-7---7-7-7-7------------|
Back to ** 1x, then below

|-----------------------------------------------------|
|-----------------------------------------------------|
|--5-4-2-----------5--7--9----------------------------|
|--------5-5-4-5-5------------------------------------|

|-----------------------------------------------------|
|-----------------------------------------------------|
|-------------5-4-2-----------------------------------|
|--5-5-4-5-5---------5-5-4-5-5------------------------|

|-----------------------------------------------------|
|-----------------------------------------------------|
|--5-4-2----------------------------------------------|
|--------5-5-4-5-5---7-7-7-7--7-7-7-7-----------------|


|-----------------------------------------------------|
|-----------------------------------------------------|
|-------------------5-5-5-5--5-5-5-5--5-5-5-5--5-5----|
|--7-7-7-7--7-7-7-7--------------------------------s5s|
                                            Repeat 4x
|-----------------------------------------------------|
|-----------------------------------------------------|
|--5-5-5--5-5-5--5-5-5--5-5-5-------------------------|
|-----------------------------555-4-555---555---------|
                                            Repeat 4x
|-----------------------------------------------------|
|-----------------------------------------------------|
|--5-5-5-5--5-5-5-5-----------------------------------|
|-------------------5-5-5-5-5--5-5-5-5----------------|

|-----------------------------------------------------|
|-----------------------------------------------------|
|-5-4-2-----------3--7--9-----------5-4-2-------------|
|-------5-5-4-5-5---------5-5-4-5-5--------5-5-4-5-5

|-----------------------------------------------------|
|-----------------------------------------------------|
|--5-4-2----------------------------------------------|
|--------5-5-4-5-5--7-7-7-7--7-7-7-7--7-7-7-7---------|

|-----------------------------------------------------|
|-----------------------------------------------------|
|----------5-5-5-5--5-5-5-5--5-5-5-5--5-5-------------|
|--7-7-7-7--------------------------------------------|
                    Repeat 4x                   
|----------------------------|  |---------|
|----------------------------|  |---------|
|--5-------------------------|  |-5 (fade)|
|----0--2--5----5-5---5-5-5-5|  |---------|

Comments