Third Eye Blind - Jumper Solo Chords & Tabs

 

Jumper Solo Chords & Tabs

Third Eye Blind Chords & Tabs

Version: 2 Type: Tab 0 ratings
1 star 2 stars 3 stars 4 stars 5 stars
comments

Jumper Solo Tab

#----------------------------------PLEASE NOTE--------------------------------#
#This file is the author's own work and represents their interpretation of the#
#song. You may only use this file for private study, scholarship, or research.#
#-----------------------------------------------------------------------------#
#-- File created with Instab - http://www.pconline.com/~smcarey/instab.html --#
#-----------------------------------------------------------------------------#
[ Tab from: http://www.guitartabs.cc/tabs/t/third_eye_blind/jumper_solo_tab_ver_2.html ]
Author/Artist: Third Eye Blind
Title: Jumper Solo
----------------------------13-12-13-12-13-12---------------------------------
-12-13-12-13-12-13-12-15----------------------12-13-15------------------------
-------------------------12--------------------------------x2-----------------
------------------------------------------------------------------------------
------------------------------------------------------------------------------
------------------------------------------------------------------------------
                                                                              

-------------------------------------19\0-------------------------------------
-12-13-12-13-12-13-12-15------------------------------------------------------
-------------------------12---------------------------------------------------
------------------------------------------------------------------------------
------------------------------------------------------------------------------
------------------------------------------------------------------------------
                                                                              

Comments