Third Eye Blind - Ill Never Let You Go Chords & Tabs

 

Ill Never Let You Go Chords & Tabs

Third Eye Blind Chords & Tabs

Version: 1 Type: Tab 0 ratings
1 star 2 stars 3 stars 4 stars 5 stars
comments

Ill Never Let You Go Tab

(standard tuning)

verse
|---------------------|
|---------------------|
|-9---------9---------|
|-9-9-7-7---9-9-7-7-7-|
|-7-9-7-7---7-9-7-7-7-|
|---7-5-5-----7-5-5-5-|

little riff thingy
|--------------------------|
|-7-9-7--------7-9-7-------|
|-------9-6----------9-6-4-|
|--------------------------|
|--------------------------|
|--------------------------|
[ Tab from: http://www.guitartabs.cc/tabs/t/third_eye_blind/ill_never_let_you_go_tab.html ]
chorus
|-----------------------|
|-----------------------|
|-9-----14-14-9-9-------|
|-9-9-9-14-14-9-9-9-x-x-|
|-7-9-9-14-14-7-7-9-x-x-|
|---7-7-----------7-x-x-|

this is in the bridge
|-----------------------------------|
|-7-7-7-7-7-7-7-7-7-7-7-7-7-7-9-7-0-|
|-----------------------------------|
|-----------------------------------|
|-----------------------------------|
|-----------------------------------|

theres some little harmonic like notes after the bridge towards the end of the song,
but they're the same notes at the chorus i believe. 

hope i was of use. peace out

-tabbed by tim b-
Comments