Third Eye Blind - Hows It Gonna Be Chords & Tabs

 

Hows It Gonna Be Chords & Tabs

Third Eye Blind Chords & Tabs

Version: 3 Type: Tab 0 ratings
1 star 2 stars 3 stars 4 stars 5 stars
comments

Hows It Gonna Be Tab

   
Artist: 3EB
Tabber: Jan
Comments: This song totally rocks and since other tabs couldn't 
Do it justice... here you goJ

Chords:

   F      C     Bb     Gm      C
e|-1-| e|-0-| e|-1-| e|-x-| e|-x-|
B|-1-| B|-1-| B|-3-| B|-x-| B|-5-|
G|-2-| G|-0-| G|-3-| G|-4-| G|-5-|
D|-3-| D|-2-| D|-3-| D|-5-| D|-5-|
A|-x-| A|-3-| A|-1-| A|-5-| A|-3-|
e|-x-| e|-x-| e|-x-| e|-3-| e|-x-|

Guitar 1 plays the intro, verse, and chorus.
Guitar 2 plays the 2nd part of the intro and the post chorus.

Intro

Guitar 1(acoustic)
F x 7
C x 2
Bbx 2
   ⋁   ⋁   ⋀  ⋁ ⋀  ⋁ ⋀  ⋁ ⋁ ⋁ ⋁   ⋀  ⋁ ⋀ ⋁   ⋀  ⋁ ⋀
e|-1--1--1-1-1-1-1-0-0-1-1—-1-1-1-1—-1-1-1-|
B|-1--1--1-1-1-1-1-1-1-3-3—-3-3-3-3—-3-3-3-|
G|-2--2--2-2-2-2-2-0-0-3-3—-3-3-3-3—-3-3-3-| x 5
A|-3--3--3-3-3-3-3-2-2-3-3—-3-3-3-3—-3-3-3-|
D|-0--0------------3-3-1-1—-1-1-1-1—-1-1-1-|
E|-x--x------------------------------------|

Guitar 2(electric)
You play Riff 1 once, when you are playing the Intro for the 5th time

Riff 1
e|--------------------------------------------------------------|
B|---10h11-10-----10h11p10—-10h11h13—-10h11p10-----10h11-10h11--|
G|-10--------10-10--------10--------10--------10-10-------------| x 1
D|------------------------------------------------------------10|
A|--------------------------------------------------------------|
E|--------------------------------------------------------------|




Verse
The same as the Intro except Riff 1 is no longer played.

 F               	   C			Bb
I'm only pretty sure that I can't take anymore,
 F                       C            Bb
Before you take a swing, I wonder what are we fighting for, 
 F                        C            Bb
When I say out loud, I want to get out of this, I wonder, 
 F                    C       Bb
Is there anything I'm gonna miss, I wonder
[ Tab from: http://www.guitartabs.cc/tabs/t/third_eye_blind/hows_it_gonna_be_tab_ver_3.html ]
Chorus
   ⋁   ⋁   ⋀  ⋁ ⋀  ⋁ ⋀   ⋁ ⋁    ⋁ ⋁   ⋀ ⋁  ⋀ ⋁   ⋀  ⋁ ⋀
e|------------------1-1---------------------|
B|------------------3-3----5--5-5-5-5--5-5-5|
G|-4--4—-4-4-4-4-4—-3-3—-5-5--5-5-5-5--5-5-5|
D|-5--5—-5-5-5-5-5—-3-3—-5-5--5-5-5-5--5-5-5|
A|-5--5—-5-5-5-5-5—-1-1—-3-3--3-3-3-3--3-3-3|
E|-3--3—-3-3-3-3-3--------------------------|

Gm                      Bb    C
How's it going to be, When you don't know me, 
Gm                      Bb     C
How's it going to be, When you're sure I'm not there, 
Gm                      Bb    C
How's it going to be, When there is no one there to talk to, 
Gm                   Bb      C
Between you and me, 'Cause I don't care, 
Gm                  Bb       C
How's it going to be,
G                   Bb        C
How's it going to be?

Post Chorus
Same as Intro

Riff 1 x 1
e|--------------------------------------------------------------|
B|---10h11-10-----10h11p10—-10h11h13—-10h11p10-----10h11-10h11--|
G|-10--------10-10--------10--------10--------10-10-------------| x 1
D|------------------------------------------------------------10|
A|--------------------------------------------------------------|
E|--------------------------------------------------------------|

Verse
Where we used to laugh, There's a shouting match, 
Sharp as a thumbnail scratch, A silence I can't ignore, 
Like . . The hammock by the doorway we spent time in, Swing
empty, don't see lightning like last fall when it was always
about to hit me, I wonder

Chorus
How's it going to be, When it goes down, 
How's it going to be, When you're not around, 
How's it going to be, When you find out there was nothing, 
Between you and me, 'Cause I don't care, 
How's it going to be,

(Same as Chorus)
How's it going to be 
When you don't know me, any more 
And How's it going to be 

(Same as Verse)
Want to get myself back in again, 
The soft dive of oblivion. 
Want to taste the salt of your skin 
The soft dive of oblivion, oblivion

Chorus
How's it going to be, When you don't know me, anymore, 
How's it going to be, 
How's it going to be,   
How's it going to be.



Comments