Third Eye Blind - Hows It Going To Be Chords & Tabs

 

Hows It Going To Be Chords & Tabs

Third Eye Blind Chords & Tabs

Version: 3 Type: Tab 0 ratings
1 star 2 stars 3 stars 4 stars 5 stars
comments

Hows It Going To Be Tab

   
#----------------------------------PLEASE NOTE--------------------------------#
#This file is the author's own work and represents their interpretation of the#
#song. You may only use this file for private study, scholarship, or research.#
#-----------------------------------------------------------------------------#

Date: Sat, 21 Mar 1998 19:16:02 -0500 (EST)
From: smithid@email.uc.edu (Isaac Smith)
Subject: t/third_eye_blind_/hows_it_going_to_be.tab
originally From: Cameron Spencer 

"How's It Going To Be" by Third Eye Blind from self-
titled album.  Lyrics/music by Stephan Jenkins and
Kevin Cadogan.  Transcribed by Isaac Smith

*No capo required*

*Intro/Verse Chords:*

*Strumming pattern 1*
             F           C              Fsus2?
e|-1---1-|-1-1-1-1-1-|-O--O--X--1-|-1-1-1-1--1-1-1-|
B|-1---1-|-1-1-1-1-1-|-1--1--X--1-|-1-1-1-1--1-1-1-|
G|-2---2-|-2-2-2-2-2-|-O--O--X--3-|-3-3-3-3--3-3-3-|
D|-3---3-|-3-3-3-3-3-|-2--2--X--3-|-3-3-3-3--3-3-3-|
A|-3---3-|-3-3-3-3-3-|-3--3--X--1-|-1-1-1-1--1-1-1-|
E|-1---1-|-1-1-1-1-1-|-X--X--X--1-|-1-1-1-1--1-1-1-|

Lyrics:
1-
I'm only pretty sure-that I can't take anymore-Before
you take a swing-I wonder-What are we fighting for-When
I say out loud-I want to get out of this-I wonder-Is 
there anything-I'm gonna miss-I wonder.

3-
Where we used to laugh, there's a shouting match-sharp
as a thumbnail scratch-A silence I can't ignore, like 
the hammock-by the door-where we spent time in-swings 
empty-I don't see lightning like last fall-when it was
always-about to hit me-I wonder.

6-
Want to get back myself back in again-The soft dive of-
oblivion-Want to taste the salt-of your skin-The soft
dive of-oblivion

*Here's the little signature riff played during a few
transitions over the top of the intor/verse guitar riff* 
[ Tab from: http://www.guitartabs.cc/tabs/t/third_eye_blind/hows_it_going_to_be_tab_ver_3.html ]
e|-5p6p5----5p6p5---5p6-8----5p6p5---5p6p5-------|
B|--------6---------------6--------6-------6-----|
G|-------------------------------------------7-5-|
D|-----------------------------------------------|
A|-----------------------------------------------|
E|-----------------------------------------------|

Lyrics:
How's it gonna be.

*Chorus 1*

*Use strumming pattern 1 w/ these chords*
*It sounds better with a barred G*    
      Riff 1                  Riff 2
e|-3-| |-1-| |-O-|       |-3-| |-1-| |-1-|
B|-3-| |-1-| |-1-|       |-3-| |-1-| |-1-| 
G|-4-| |-2-| |-O-|       |-4-| |-2-| |-3-| 
D|-5-| |-3-| |-2-|       |-5-| |-3-| |-3-|
A|-5-| |-3-| |-3-|       |-5-| |-3-| |-1-|
E|-3-| |-1-| |-X-|       |-3-| |-1-| |-1-|
   G     F     C           G     F    Fsus2?
Lyrics:
2-
How's it's gonna be-when you don't know me-How's it gonna
be-when you're sure I'm not there-How's it gonna be-when
there's no one there to talk to-Between you and me-Cause
I don't care-How's it gonna be.

4-
How's it gonna be-when it goes down-How's it gonna be-
when you're not around-How's it gonna be-when you found
out there was nothing-Between you and me-Cause I don't
care-How's it gonna be.

*Chorus 2*

*Strumming pattern 2*
         G                Fsus2?            F
e|-3-3-3-3-3-3-3-3-|-1-1-1-1-1-1-1-1-|-1-1-1-1-1-1-1-1-|
B|-3-3-3-3-3-3-3-3-|-1-1-1-1-1-1-1-1-|-1-1-1-1-1-1-1-1-|
G|-4-4-4-4-4-4-4-4-|-3-3-3-3-3-3-3-3-|-2-2-2-2-2-2-2-2-|
D|-5-5-5-5-5-5-5-5-|-3-3-3-3-3-3-3-3-|-3-3-3-3-3-3-3-3-|
A|-5-5-5-5-5-5-5-5-|-1-1-1-1-1-1-1-1-|-3-3-3-3-3-3-3-3-|
E|-3-3-3-3-3-3-3-3-|-1-1-1-1-1-1-1-1-|-1-1-1-1-1-1-1-1-|
         C                  G         Fsus2?
e|-O-O-O-O-O-O-O-O-|-3-3-3-3-3-3-3-3-|-1-|
B|-1-1-1-1-1-1-1-1-|-3-3-3-3-3-3-3-3-|-1-|
G|-O-O-O-O-O-O-O-O-|-4-4-4-4-4-4-4-4-|-3-|
D|-2-2-2-2-2-2-2-2-|-5-5-5-5-5-5-5-5-|-3-|
A|-3-3-3-3-3-3-3-3-|-5-5-5-5-5-5-5-5-|-1-|
E|-X-X-X-X-X-X-X-X-|-3-3-3-3-3-3-3-3-|-1-|

Lyrics:
5,7-
How's-it gonna be-When you don't know me-Anymore-How's
it gonna be.

Comments