Third Eye Blind - Graduate Chords & Tabs

 

Graduate Chords & Tabs

Third Eye Blind Chords & Tabs

Version: 3 Type: Tab 0 ratings
1 star 2 stars 3 stars 4 stars 5 stars
comments

Graduate Tab

   
Author/Artist: Third Eye Blind
Song: Graduate
Album: Self-Titled
Transcribed by: Mark Rarang
Email: rzeznik08@yahoo.com

Tuning: Open D (D A D F# A D)
This song is in Open D tuning but like Semi-Charmed
Life, it's tuned to different vibrations. 445

Play intro only pressing, with no picking.

Intro:
|--|----------------------------|-----------------------------|-----------------
|--|5---9-5-9----5-9-5-9---5----|-----9-5-9----5-9-5-9---5----|-----9-5-9----5-9
|--|5---8-5-8----5-8-5-8---5----|-----8-5-8----5-8-5-8---5----|-----8-5-8----5-8
|--|5---7-5-7----5-7-5-7---5----|-----7-5-7----5-7-5-7---5----|-----7-5-7----5-7
|-7|5----------------------5-7--|-5----------------------5-7--|-5---------------
|-7|5----------------------5-7--|-5----------------------5-7--|-5---------------

------------|-----------------9p5-----5----------5-||
-5-9---5----|-----9-5-9----5-------9-----9p5--9----||
-5-8---5----|-----8-5-8----5-----------------------||
-5-7---5----|-----7-5-7----5-----------------------||
-------5-7--|-5------------------------------------||
-------5-7--|-5------------------------------------||

Guitar Two:
|-----------|--------------------------------------||
|-----------|--------------------------------------||
|----rest---|----------------------------5/7-------||
|-----for---|----------------------------5/7-------||
|---5-------|----------------------------5/7-------||
|---measures|----------------------------5/7-------||

Chorus:
|------------------------------------||------------||--------------------------|
|-------9p5--9----5--9--5--9---------||------------||-----9p5-9---5-9-5-9------|
|-------8p5--8----5--8--5--8---------||play-12times||-----8p5-8---5-8-5-8--5-7/|
|---5---7p5--7----5--7--5--7---5--7--||------------||-5---7p5-7---5-7-5-7--5-7/|
|---5--------5-------5---------5--7--||------------||-5-------5-----5------5-7/|
|---5--------5-------5---------5--7--||------------||-5-------5-----5------5-7/|

Verse:										  */w Fill 1
|-----0----0-------------10---10|-x----------0----0----0------5------0-|--------
|-----0----0-------------10---10|-x----------0----0----0------5-5----0-|--------
|-----x----x----13-13-13-13---13|-x----------x----x----x------5-5-5--x-|--------
|12---12---12-x-12-12-12-12---12|-x-12-12-12-12---12---12-x-5-5-5-5--7-|--------
|12---12---12-x-10-10-10-10---10|---12-12-12-12---12---12-x-5-5-5-5--5-|--------
|12---12---12-x-10-10-10-10---10|---12-12-12-12---12---12-x-5-5---5--5-|--------

-0----0---------------10--10-|-x----------0----0--------5------0--|--------0----
-0----0---------------10--10-|-x----------0----0--------5-5----0--|--------0----
-x----x------13-13-13-13--13-|-x----------x----x--------5-5-5--x--|--------x----
-12---12---x-12-12-12-12--12-|-x-12-12-12-12---12--x--5-5-5-5--7--|--12-12-12---
-12---12---x-10-10-10-10--10-|---12-12-12-12---12--x--5-5-5-5--5--|--12-12-12---
-12---12---x-10-10-10-10--10-|---12-12-12-12---12--x--5-5---5--5--|--12-12-12---

-0--------------10---10-|--x----------0----0------5------0-|------------0---0---
-0--------------10---10-|--x----------0----0------5-5----0-|------------0---0---
-x----13-13-13--13---13-|--x----------x----x------5-5-5--x-|------------x---x---
-12-x-12-12-12--12---12-|--x-12-12-12-12---12-x-5-5-5-5--7-|-x-12-12-12-12--12-x
-12-x-10-10-10--10---10-|----12-12-12-12---12-x-5-5-5-5--5-|-x-12-12-12-12--12-x
-12-x-10-10-10--10---10-|----12-12-12-12---12-x-5-5---5--5-|-x-12-12-12-12--12-x

----------10--10-|-x--------------------------------||
----------10--10-|-x--------------------------------||
-13-13-13-13--13-|-x--------------------------------||
-12-12-12-12--12-|-x-12-12-12-12---12-x-8-8-8-8-7---||
-10-10-10-10--10-|---12-12-12-12---12-x-8-8-8-8-7p0-||
-10-10-10-10--10-|---12-12-12-12---12-x-8-8-8-8-7p0-||

*Fill 1 (bass arr. for gtr.)
|----------------|-----------------|---------|--------|------------|----------||
|----------------|-----------------|---------|--------|------------|----------||
|----------------|-----------------|---------|--------|------------|----------||
|-16\5/7---------|-----------------|-16\5----|--------|/16\5-------|----------||
|----------------|-----------------|---------|--------|------------|----------||
|----------------|-----------------|---------|--------|------------|----------||

Guitar Solo (/w Guitar Two) /w wah-wah
                           fdbk.-----------|                1/2-----|1|1.5------
|---------9-|---------------------------|---------------------------------------
|---------9-|---9----9vvv------9------9-|-9-------------------------------------
|-----------|---8-----------------------|-9------------------9b9b9b9b9b9b9b9b9b-
|-----------|---------------------------|-9-------------------------------------
|-----------|---------------------------|---------------------------------------
|-----------|---------------------------|------------9--9--9--------------------

---------|		    1---------|				   1/4   1/4 1/2 1
-----|----------------12--------------------|------------------------0-----0----
-----|----------------12--------------------|-----------------------------------
9b9b-|9b9b9r--------9----10bbbbb10b10rp9h10-|-9-----------9-----10-b---10b-b---b
-----|-------9-9----9-----------------------|----9--9--9--9---9-----------------
-----|---------9--9-------------------------|----9--9--9--9---9-----------------
-----|---------9--9-------------------------|----9--9--9--9---9-----------------

					1/2---|     1-|				 1/2-
-0---0-|-----------------14-16-14-16b--16r-14-----|----------------14-16-14-16b-
---0---|-0--14---17vv-17----------------------17b-|-17vv--14--17----------------
-------|------------------------------------------|-----------------------------
-------|------------------------------------------|-----------------------------
-------|------------------------------------------|-----------------------------
-------|------------------------------------------|-----------------------------
[ Tab from: http://www.guitartabs.cc/tabs/t/third_eye_blind/graduate_tab_ver_3.html ]
--|							  1/2-|
-16r-14-------|-------------------------------------|---------------------9\-|--
--------17-14-|-------------------------------------|------------------------|--
--------------|-------------8------10-10-10-10-9--9b|-9r---------8-----------|--
--------------|/9--9--9--9--7------7--7--7--7--7----|--------7---7-----------|--
--------------|/9--9--9--9--9------9-----9-----9----|----9---9---------------|--
--------------|/9-----9-----9------9-----9-----9----|----9---9---------------|--

				1/2---|     1-|			    1/2---|  
|-----------------14-16-14-16b--16r-14-----|-------------14-16-14-16b--16r-14---
|-----14--17vv-17----------------------17b-|17v---14-17v----------------------17
|/x----------------------------------------|------------------------------------
|------------------------------------------|------------------------------------
|------------------------------------------|------------------------------------
|------------------------------------------|------------------------------------
     
      1-----------------|  1/2
----|----------------------14---|-14-14--14-14-14-14-14--14----||
-14-|-17b--17--17--17--17--17---|-17-17--17-17-16-16-16--14-16-||
----|---------------------------|------------------------------||
----|---------------------------|------------------------------||
----|---------------------------|------------------------------||
----|---------------------------|------------------------------||

Guitar Two (with Guitar Solo)
|--x---------------------------------------|---------------------------------|--
|--x---------------------------------------|---------------------------------|--
|--x---------------------------------------|-----------9--9h10-10--10--9h10--|--
|--x--12-12-12-12-----12-x-8--8--8--8--7---|--9---9----9--9----9---9---9-----|--
|-----12-12-12-12-----12-x-8--8--8--8--7p0-|--9---9----9--9h11-11--11--9h11--|--
|-----12-12-12-12-----12-x-8--8--8--8--7p0-|--9---9----9--9----9---9---9-----|--

|-------9--------------------|----------------------------------|---------9-----
|-------9--------------------|----------------------------------|---------9-----
|-------9---------8----------|-------------9--9h10-10--10--9h10-|---------9-----
|-9--9--9--9---9--9----9---9-|-9--9---9----9--9----9---9---9----|-9---9---9--9--
|-9--9--9--9---9--9----9---9-|-9--9---9----9--9h11-11--11--9h11-|-9---9---9--9--
|-9--9--9--9---9-------9---9-|-9--9---9----9--9----9---9---9----|-9---9---9--9--

----------------|-----------------------------0-|-----------------------------0|
----------------|-----------------------------0-|-----------------------------0|
----8-----------|---------5---5-----------0---0-|---------5---5-----------0---0|
----9-----9---9-|-0-5-5-5-5---5-5-7-0-0-0-0-0-0-|-0-5-5-5-5---5-5-7-0-0-0-0-0-0|
--9-9-----9---9-|-0-5-5-5-5---5-5-7-0-0-0-0-0-0-|-0-5-5-5-5---5-5-7-0-0-0-0-0-0|
--9-------9---9-|-0-5-5-5-5---5-5-7-0-0-0-0-0-0-|-0-5-5-5-5---5-5-7-0-0-0-0-0-0|

|-------------------------------|-------------------------------|---------------
|-------------------------------|-------------------------------|---------------
|----------9--9h10-10---10-9h10-|-------------8---8---8---8-8-8-|---------5---5-
|/9----9---9--9----9----9--9----|-9---9--9----9---9-9-9-9-9-9-9-|-0-5-5-5-5---5-
|/9----9---9--9h11-11---11-9h11-|-9---9--9--9-9-9-9-9-9-9-9-9-9-|-0-5-5-5-5---5-
|/9----9---9--9----9----9--9----|-9---9--9--9-9-9---9---9---9---|-0-5-5-5-5---5-

---------------------|----------------------------|----------------------------|
--------------12-12\-|----------------------12-12\|----------------------------|
-5------------12-12\-|---------5--5-5-------12-12\|--------7--7--------7-------|
-5-7-0-0----0-12-12\-|-0-5-5-5-5--5-5-7-0-0-12-12\|-7----7-7--7--7--7--7---7--7|
-5-7-0-0----0-0--0---|-0-5-5-5-5--5-5-5-0-0-0--0--|-7--7-7-7--7--7--7--7---7--7|
-5-7-0-0----0----0---|-0-5-5-5-5--5-5-7-0-0----0--|-7--7-7-7--7--7--7--7---7--7|

|----------------------------||
|----------------------------||
|-8------8--8--7--7--7-7-7-7-||
|-7--7-7-7--7--7--7--7-7-7-7-||
|-7--7-7-7--7--7--7--7-7-7-7-||
|-7--7-7-7--7--7--7--7-7-7-7-||

Interlude:

Guitar One
  1/2----|
|-------------------|-----------------------------|---------------------------||
|-16b-vvv--(16)\----|-----------------------------|---------------------------||
|-------------------|-----------------------------|---------------------------||
|-------------------|-----------------------------|---------------------------||
|-------------------|-----------------------------|---------------------------||
|-------------------|-----------------------------|---------------------------||

Guitar Two (/w misc. gtr. noise)
|--------------------------|------------------------|----------------------|----
|--------------------------|------------------------|----------------------|----
|--------------------------|------------------------|----------------------|----
|-----------0---------0----|-------0---------0-0----|-------0---------0----|----
|-----0-5-3-0---0-5-3-0----|-0-5-3-0---0-5-3-0-0----|-0-5-3-0---0-5-3-0----|-0-5
|-----0-5-3-0---0-5-3-0----|-0-5-3-0---0-5-3-0-0----|-0-5-3-0---0-5-3-0----|-0-5

------------------------||
------------------------||
------------------------||
---0-------0---x-x-5-7--||
-3-0-0-5-3-0---x-x-5-7--||
-3-0-0-5-3-0---x-x-5-7--||

Outro:

After "I'm not waiting here for you to die____."
|---5-5-9--5-----9-----|--5-5-9-5-----9-----|--5-5-9---5-----9------|--5-5-9--5-
|---5-5-9--5-5-5-9-----|--5-5-9-5-5-5-9-----|--5-5-9---8-5-5-9------|--5-5-9--5-
|---8-8-8--8-8-8-8-5-7-|--8-8-8-8-8-8-8-5-7-|--8-8-8---5-8-8-8--5-7-|--8-8-8--8-
|-5-5---7--5-5-5-7-5-7-|5-5---7-7-5-5-5-5-7-|5-5---7-----5-5-5--5-7-|5-5---7--5-
|-5-----5----5-----5-7-|5-----5---5-----5-7-|5-----5-----5------5-7-|5-----5----
|-5-----5----5-----5-7-|5-----5---5-----5-7-|5-----5-----5------5-7-|5-----5----

-----9-----|---5-5-9---5-----9-----|---5-5-9---5-----9------|-0----------|----||
-5-5-9-----|---5-5-9---5-5-5-9-----|---5-5-9---5-5-5-9------|-0----------|----||
-8-8-8-5-7-|---8-8-8---8-8-8-8-5-5-|---8-8-8---8-8-8-8--5-7-|-0----------|----||
-5-5-5-5-7-|-5-5---7---7-5-5-5-5-5-|-5-5---7---5-5-5-5--5-7-|/9------(9)\|----||
-5-----5-7-|-5-----5-----5-----5-5-|-5-----5-----5------5-7-|/9------(9)\|----||
-5-----5-7-|-5-----5-----5-----5-5-|-5-----5-----5------5-7-|/9------(9)\|-0--||

Notation Guide
h = hammer on
p = pull off
b = bend
r = release bend
/ = slide up
\ = slide down
x = muted (muffled) note
()= with held note
v = vibrato
^ = harmonic

That's it guys!This is really an awesome song!Hope You'll enjoy it!
Comments