Third Eye Blind - Crystal Baller Chords & Tabs

 

Crystal Baller Chords & Tabs

Third Eye Blind Chords & Tabs

Version: 2 Type: Tab 0 ratings
1 star 2 stars 3 stars 4 stars 5 stars
comments

Crystal Baller Tab

   
-------------------------------------------------------------------------------
			     Crystall Baller - Third Eye Blind
-------------------------------------------------------------------------------

Tabbed by: KYLE ROSHER
Email: THEMUSICMAN128@YAHOO.COM

Tuning:

INTRO
0:00
e|---------0h1p0-------0-3-------|
B|-------------------------------|
G|------2------------0-----------|
D|----3------------2-------------|
A|-------------------------------|
E|-------------------------------|  3x

e|---------0-3----|
B|-------3--------|
G|----------------|
D|-----0----------|
A|----------------|
E|---3------------|


CHORUS

0:34
e|---------------------------------------------------------------------------|
B|---------------------------------------------------------------------------|
G|---------------------------------------------------------------------------|
D|---3-3---7-7-x-5-5-x-5--------3-3---7-7-10---5-x-5-x-5-5-------------------|
A|---3-3---7-7-x-5-5-x-5--------3-3---7-7-10---5-x-5-x-5-5-------------------|
E|---1-1---5-5-x-3-3-x-3--------1-1---5-5-8----3-x-3-x-3-3-------------------|

VERSE
[ Tab from: http://www.guitartabs.cc/tabs/t/third_eye_blind/crystal_baller_tab_ver_2.html ]
1:00
e|---------------------------------------------------------------------------|
B|---------------------------------------------------------------------------|
G|---7-------5-------7-------5-------7------5--------------------------------|
D|---7-------5-------7-------5-------7------5-------5------------------------|
A|---5-------3-------5-------3-------5------3-------5------------------------|
E|--------------------------------------------------3------------------------|

1:20
REPEAT CHORUS

BRIDGE

2:01
e|-------------|
B|-------------|
G|---3----5----|
D|---3----5----|
A|---1----3----|
E|-------------| 4X

e|--------------|
B|--------------|
G|--------------|
D|---7-----3----|
A|---7-----3----|
E|---5-----1----|3X

2:19
REPEAT VERSE 

2:30
REPEAT INTRO

2:50
REPEAT CHORUS

outro

2:47
e|-----------------------------------|
B|--------12-------------------------|
G|--12-11----12-11-12-9--------------|
D|----------------------12-10-9-10---|
A|-----------------------------------|
E|-----------------------------------| 4x

e|---------|
B|---------|
G|---------|
D|-12--7---|
A|---------|
E|---------|

| /  slide up
| \  slide down
| h  hammer-on
| p  pull-off
| ~  vibrato
| +  harmonic
| x  Mute note

===============================================================================
Comments