Third Eye Blind - Blue Chords & Tabs

 

Blue Chords & Tabs

Third Eye Blind Chords & Tabs

Version: 1 Type: Tab 0 ratings
1 star 2 stars 3 stars 4 stars 5 stars
comments

Blue Tab

#----------------------------------PLEASE NOTE--------------------------------#
#This file is the author's own work and represents their interpretation of the#
#song. You may only use this file for private study, scholarship, or research.#
#-----------------------------------------------------------------------------#
#-- File created with Instab - http://www.pconline.com/~smcarey/instab.html --#
#-----------------------------------------------------------------------------#

Author/Artist: Third Eye Blind
Title: Never Let You Go
Album: Blue
Transcribed by: Spaceman
Email: SpacemanVII@cinci.rr.com


This is the main chord progression:  repeat as needed
-|------------------------|
-|------------------------|
-|-9-----------9----------|
-|-9--9--7-7---9--9--7-7-7|
-|-7--9--7-7---7--9--7-7-7|
-|----7--5-5------7--5-5-5|
 
Guitar 2 riff (distorted):                repeat 2x  
-|---------------------------------------|
-|---------------------------------------|
-|-11b13r11-9----------11b13r11-9--------|
-|------------11-11v--------------11-11-9|
-|---------------------------------------|
-|---------------------------------------|
[ Tab from: http://www.guitartabs.cc/tabs/t/third_eye_blind/blue_tab.html ]
 Pre-chorus riff:            repeat 3x  
-|--------------------------|
-|--------------------------|
-|-13-13-9--9-----13-13-9-11|
-|--------------------------|
-|--------------------------|
-|--------------------------|

 Chorus:            repeat 3x  
-|-----------------|
-|--------10-10----|
-|-9------9--9--9--|
-|-9-9-9--7--7--9-9|
-|-7-9-9--------7-9|
-|---7-7----------7|

 Bridge riff:                                         repeat as needed  
-|---------------------------------------------------|
-|---------------------------------------------------|
-|-11-11-11-11-11-11-11-11-11-11-11-11-11-13-11----9v|
-|---------------------------------------------------|
-|---------------------------------------------------|
-|---------------------------------------------------|

 Last chorus (finger picked):               repeat as needed  
-|----------12----------------12------------|
-|-------12----------12----12----12-------12|
-|----13----------13----14----------14-13---|
-|-14----------16---------------------------|
-|------------------------------------------|
-|------------------------------------------|

 Except for the finger picking part, I am positive this is how they play it. :)     
Comments