Third Eye Blind - Blinded Chords & Tabs

 

Blinded Chords & Tabs

Third Eye Blind Chords & Tabs

Version: 2 Type: Tab 0 ratings
1 star 2 stars 3 stars 4 stars 5 stars
comments

Blinded Tab

   
                ********************************************
                ***         Third Eye Blind              ***
                ***      Blinded(When I See You)         ***
                ********************************************
Hey,this is a good song by Third Eye Blind,i didnt see any tabs
so i did it myself,sounds good rate this tab its in standard tuning
____________
h=hammer on |  
p=pull off  |
~=hold      |
____________|

Intro/Verse part 1
e-------------------------------
b-------------------------------
g-3-3-3-3-3-5-3-2-2-2-2-2-2-0---
d-3-3-3-3-3-3-3-3-3-3-3-3-3-3-3-
a-3-3-3-3-3-3-3-3-3-3-3-3-3-3-3-
E-------------------------------

Pre Chorus part 1
Guitar 1
e---------------------------
b---------------------------
g---------------------------
d-7-7-7-7-5-5-5-5-3-3-3-3-5-
a-5-5-5-5-3-3-3-3-1-1-1-1-3-
E---------------------------

Guitar 2
e--------------- he plays it while guitar 1
b-6h5p6p5h6p5h6- is playin,figure out when he
g--------------- plays this
d---------------
a---------------
E---------------

Pre-Chorus part 2
e-1-----1-----3------3----1----1-----1------
b---1-----1-----3------3----1----1-----1----
g-------------------------------------------
d-----3-----3------3-----3----3----3-----3--
a-------------------------------------------
E-------------------------------------------

Chorus 1-strum these chords
    F        G        F           C
e-1-1-1-1-3-3-3-3-3-1-1-1-1-1------------
b-1-1-1-1-3-3-3-3-3-1-1-1-1-1--1-1-1-1-1-
g-2-2-2-2-----------2-2-2-2-2------------
d-3-3-3-3-----------3-3-3-3-3--2-2-2-2-2-
a-3-3-3-3-2-2-2-2-2-3-3-3-3-3--3-3-3-3-3-
E-1-1-1-1-3-3-3-3-3-1-1-1-1-1------------

Verse 2
e-------------------------------
b-------------------------------
g-3-3-3-3-3-5-3-2-2-2-2-2-2-0---
d-3-3-3-3-3-3-3-3-3-3-3-3-3-3-3-
a-3-3-3-3-3-3-3-3-3-3-3-3-3-3-3-
E-------------------------------


Pre Chorus part 1
Guitar 1
e---------------------------
b---------------------------
g---------------------------
d-7-7-7-7-5-5-5-5-3-3-3-3-5-
a-5-5-5-5-3-3-3-3-1-1-1-1-3-
E---------------------------

Guitar 2
e--------------- he plays it while guitar 1
b-6h5p6p5h6p5h6- is playin,figure out when he
g--------------- plays this
d---------------
a---------------
E---------------
[ Tab from: http://www.guitartabs.cc/tabs/t/third_eye_blind/blinded_tab_ver_2.html ]
Pre-Chorus part 2
e-1-----1-----3------3----1----1-----1------
b---1-----1-----3------3----1----1-----1----
g-------------------------------------------
d-----3-----3------3-----3----3----3-----3--
a-------------------------------------------
E-------------------------------------------

Chorus 2-strum these chords
    F        G        F           C
e-1-1-1-1-3-3-3-3-3-1-1-1-1-1------------
b-1-1-1-1-3-3-3-3-3-1-1-1-1-1--1-1-1-1-1-
g-2-2-2-2-----------2-2-2-2-2------------
d-3-3-3-3-----------3-3-3-3-3--2-2-2-2-2-
a-3-3-3-3-2-2-2-2-2-3-3-3-3-3--3-3-3-3-3-
E-1-1-1-1-3-3-3-3-3-1-1-1-1-1------------

Breakdown(x3)
e------------------------------
b------------------------------
g------------------------------
d-3-3-3-3-5----3h5-7-5-5-5-5-5-
a-1-1-1-1-3-3--------3-3-3-3-3-
E-----------1------------------

e-----------------------------
b-----------------------------
G-3-3-3-3-3-3-2-2-2-2-2-2-2-2-
d-3-3-3-3-3-3-3-3-3-3-3-3-3-3-
a-3-3-3-3-3-3-3-3-3-3-3-3-3-3-
E-----------------------------

Pre Chorus part 1
Guitar 1
e---------------------------
b---------------------------
g---------------------------
d-7-7-7-7-5-5-5-5-3-3-3-3-5-
a-5-5-5-5-3-3-3-3-1-1-1-1-3-
E---------------------------

Guitar 2
e--------------- he plays it while guitar 1
b-6h5p6p5h6p5h6- is playin,figure out when he
g--------------- plays this
d---------------
a---------------
E---------------

Pre-Chorus part 2
e-1-----1-----3------3----1----1-----1------
b---1-----1-----3------3----1----1-----1----
g-------------------------------------------
d-----3-----3------3-----3----3----3-----3--
a-------------------------------------------
E-------------------------------------------

Chorus 3-strum these chords
    F        G        F           C
e-1-1-1-1-3-3-3-3-3-1-1-1-1-1------------
b-1-1-1-1-3-3-3-3-3-1-1-1-1-1--1-1-1-1-1-
g-2-2-2-2-----------2-2-2-2-2------------
d-3-3-3-3-----------3-3-3-3-3--2-2-2-2-2-
a-3-3-3-3-2-2-2-2-2-3-3-3-3-3--3-3-3-3-3-
E-1-1-1-1-3-3-3-3-3-1-1-1-1-1------------

e-------------------------------
b-------------------------------
g-3-3-3-3-3-5-3-2-2-2-2-2-2-0---
d-3-3-3-3-3-3-3-3-3-3-3-3-3-3-3-
a-3-3-3-3-3-3-3-3-3-3-3-3-3-3-3-
E-------------------------------

e-------------------
b-------------------
G-3-3-3-3-3-3-3-3-2~
d-3-3-3-3-3-3-3-3-3~
a-3-3-3-3-3-3-3-3-3~
E-------------------

that's it,rate this tab please it took a long time,any corrections
or comments or to tell me how good this tab is click the correct
tab link on the top
Comments