Third Eye Blind - Background Chords & Tabs

 

Background Chords & Tabs

Third Eye Blind Chords & Tabs

Version: 2 Type: Tab 0 ratings
1 star 2 stars 3 stars 4 stars 5 stars
comments

Background Tab

#----------------------------------PLEASE NOTE--------------------------------#
#This file is the author's own work and represents their interpretation of the#
#song. You may only use this file for private study, scholarship, or research.#
#-----------------------------------------------------------------------------#
#-- File created with Instab - http://www.pconline.com/~smcarey/instab.html --#
#-----------------------------------------------------------------------------#

Author/Artist: Third Eye Blind
Title: The Background
Album: Third Eye Blind
Transcribed by: Pablo Alvarado
Email: Volcomskate18@hotmail.com

this song is in open d tunning
DADF#AD

---------0h4p0---0--------0-----0h4p0---0---------0---------------------------|
---------------4----------0-----------4-----------0---------------------------|
----------------------0---0-----------------------0---------------------------|
--------------------0-----------------------5--5------------------------------|
--------------------------------------------5---------------------------------|
--------------------------------------------5---------------------------------|
    Intro x 2 1/2 times for the half just play the first half of the intro

------------------------------------------------------------------------------|
---------------0---0-0-0-0-0-0------------------------------------------------|
-------------0-----0-0-0-0-0-0------------------------------------------------|
-----------0-------0-0-0-0-0-0-------5-7-5h7-5-7-5h7-7-5----------------------|
-------------------------------------5-5-5---5-5-5---5-5----------------------|
------------------------------------------------------------------------------|
 Verse 1 repeat 3 and 1/2 times. For the half just play everything open

---------------------12-12-12--x----7-7-7--x---0------------------------------|
---------------------12-12-12--x----7-7-7--x---0------------------------------|
-------------0-------12-12-12--x----7-7-7--x---0------------------------------|
-------------9-------12-12-12--x----7-7-7--x---0------------------------------|
-------------9----------------------------------------------------------------|
-------------9----------------------------------------------------------------|
   this is after he says "in the background"

------------------------------5---------5-------------------------------------|
--------0-0-0-0-0-0-----------------------------------------------------------|
--------0-0-0-0-0-0---5-5h7-7----5h7-7----------------------------------------|
--------0-0-0-0-0-0---5-5---5----5---5----------------------------------------|
------------------------------------------------------------------------------|
------------------------------------------------------------------------------|
 Verse 2

----------------0-0-0-0-0-0-0-0-0-------------0-0-0-0-0-0---------------------|
----------------0-0-0-0-0-0-0-0-0-------------0-0-0-0-0-0---------------------|
----------------7-7-7-7-7-7-7-7-7-------------8-8-8-8-8-8---------------------|
----------------7-7-7-7-7-7-7-7-7-------------9-9-9-9-9-9---------------------|
----------------x-x-x-x-x-x-x-x-x-------------x-x-x-x-x-x---------------------|
----------------7-7-7-7-7-7-7-7-7------7/9----9-9-9-9-9-9---------------------|
 Pre-Chorus    "the plans i made.....them....when you come swimming...
[ Tab from: http://www.guitartabs.cc/tabs/t/third_eye_blind/background_tab_ver_2.html ]
------------------------------------------------------------------------------|
-----------------------10-10-10-10-10-10-0-0-0-0-0-0-0-0-0-0-0-0---10---------|
-------------12-12-12--12-12-12-12-12-12-8-8-8-8-8-8-8-8-8-8-8-8---12---------|
-------------12-12-12--12-12-12-12-12-12-9-9-9-9-9-9-9-9-9-9-9-9---12---------|
--------------x--x--x---x--x--x--x--x--x-x-x-x-x-x-x-x-x-x-x-x-x----x---------|
-------------12-12-12--12-12-12-12-12-12\9-9-9-9-9-9-9-9-9-9-9-9-9/12---------|
 Chorus  "view and i'm hanging on your words like i always used to do"Repeat

-----------x--0h4p0------------x----------------------------------------------|
-----------x----------0--------x----------------------------------------------|
-------0-0-x--------0----0-0-0-x----------------------------------------------|
-------0-0-x-------------5-5-5-x----------------------------------------------|
-------0-0-x-------------5-5-5-x----------------------------------------------|
-------0-0-x-------------5-5-5-x----------------------------------------------|
 Bridge

------------------------------------------------------------------------------|
------------------------------------------------------------------------------|
---------7--7--7--7--7--7--7--7--7--7-----------------------------------------|
---------7--7--7--7--7--7--7--7--7--7-----------------------------------------|
---------x--x--x--x--x--x--x--x--x--x-----------------------------------------|
---------7--7--7--7--7--7--7--7--7--7-----------------------------------------|
 "cause i felt you long after we were throouuuuugh"

------17--17-16b17r16--12v----14/17-17-16b17r16-12v-12-14-12h14p12------------|
------------------------------------------------------------------------------|
------------------------------------------------------------------------------|
------------------------------------------------------------------------------|
------------------------------------------------------------------------------|
------------------------------------------------------------------------------|
 solo

------17--17-16b17r16--12v-----------------------------17-17-16b17r16--12v----|
-----------------------------12-12/10---10/9---9/7v---------------------------|
------------------------------------------------------------------------------|
------------------------------------------------------------------------------|
------------------------------------------------------------------------------|
------------------------------------------------------------------------------|


---17--17-16b1716-12v---17-17-16b17r16--12v-----------------------------------|
------------------------------------------------------------------------------|
-----------------------------------------------0-0-0-0-0-0-0------------------|
-----------------------------------------------5-5-5-5-5-5-5------------------|
-----------------------------------------------5-5-5-5-5-5-5------------------|
-----------------------------------------------5-5-5-5-5-5-5------------------|
                                             "i only know because"

------------------------0h4p0---0-------0-------------------------------------|
------------------------------0---0-----0-------------------------------------|
----------------------------------------0-------------------------------------|
----------------------------------------0-------------------------------------|
----------------------------------------0-------------------------------------|
----------------------------------------0-------------------------------------|
  "in the background.."

--------------------7-7-4-4------0-0------------------------------------------|
--------------------x-x-x-x------0-0------------------------------------------|
--------------------0-0-0-0--7-7-0-0-7-7--10-10-10h12p10-10-------------------|
--------12-12-12----5-5-5-5--7-7-0-0-7-7---x--x--x-x-x-x--x---12-12-12--------|
---------x--x--x----5-5-5-5--7-7-----7-7---x--x--x-x-x-x--x----x--x--x--------|
--------12-12-12----5-5-5-5--7-7-----7-7--10-10-10-------10---12-12-12--------|
 Outro
Comments