Third Eye Blind - Anything Chords & Tabs

 

Anything Chords & Tabs

Third Eye Blind Chords & Tabs

Version: 3 Type: Tab 0 ratings
1 star 2 stars 3 stars 4 stars 5 stars
comments

Anything Tab

   
Person: eeĆn

song: Anything

artist: Third Eye Blind

tab: This is the first single from Third Eye Blind's new release
"Blue".  This is all correct up until the outro.  If you have any
comments, questions, or suggestions, e-mail me at DaMuZikBoi@aol.com.
Enjoy!

**Standard Tuning**

Chords used:
B - x20033 (This is a G with the bottom string muted)
C - x32033
Am - x02210
G - 320033

Intro x2:
    Am        C
e---------0----------3------
B------1---------3----------
G---------------------------
D---2-----------------------
A-------------3-------------
E---------------------------

Anything for you
Turn my castles blue

Verse - w/distortion:
Am                    *fill*
Turn my bones to sand

C         
Just to see you

*fill*
e----------------
B---5--5h6---5---
G----------------
D----------------
A----------------
E----------------

Chorus:
B                     
I'd give you anything

C
I'd give you anything

B                     C
I'd give you anything

Am   C

Verse:
Am
Jackie-O with the top down open

C
All the words to whats unspoken

Am                                    C
Put together everything thats broken
[ Tab from: http://www.guitartabs.cc/tabs/t/third_eye_blind/anything_tab_ver_3.html ]
Chorus:
Just to see you

B
I'd give you anything

C
I'd give you anything

B
I'd give you anything

C
I'd give you anything

G  (Here Kevin slides his pick from about the 5th to 12th frets on top
of the low E string.  This is a cool effect with a crunchy dist.)

Verse:
Am
Jackie-O with the top down open

C
A king's horse for what's been broken

Am                                    C
I'll bring back even what's unspoken

Chorus:
Just to see you

B
I'll give you anything

C
I'll give you anything

B                      C
I'll give you anything

B   C

Heres the next part, I don't know what to call it!
e------------------------------------
B------------------------------------
G--0-0-0-0-0-0-0-0--0-0-0-0-0-0-0-0--
D--0-0-0-0-0-0-0-0--2-2-2-2-2-2-2-2--
A--2-2-2-2-2-2-2-2--3-3-3-3-3-3-3-3--
E--x-x-x-x-x-x-x-x--x-x-x-x-x-x-x-x--

B  C  Am (hold out Am)

Outro - I'm not absolutely sure here but this sounds ok:
e---0-------------3-----8---------15---
B-------------3---3-----8----8----15---
G------5p4h5------0-----9----9----12---
D-----------------0---------10---------
A--------------------------------------
E--------------------------------------

THE END!
Comments