Third Eye Blind - Anything Chords & Tabs

 

Anything Chords & Tabs

Third Eye Blind Chords & Tabs

Version: 2 Type: Tab 1 rating
1 star 2 stars 3 stars 4 stars 5 stars
comments

Anything Tab

   
Artist: Third Eye Blind
Song: Anything
Album: Blue
Tabbed by: Kevin Brosky

This is a very simple song and is probably the easiest 3EB song there is, so this tab should be accurate.

Chords used:
Am - x02210
Cadd9 - x32033
Badd9 - x20033 
Gadd9 - 320033


Intro (Clean):
   Am               Cadd9
E|---------0----|-----------3---| 2x
B|-----1--------|-------3-------|
G|--------------|---------------|
D|-2------------|---------------|
A|--------------|---3-----------|
E|--------------|---------------|
   (let ring)
        Anything for you…
        Turn my castles blue

Verse (Distorted):

Strum these chords

Am                Cadd9
  Turn my bones to sand just to see you


Chorus (Distorted):

Badd9                Cadd9
  I’d give you anything...I’d give you anything
Badd9                Cadd9
  I’d give you anything


Verse:
[ Tab from: http://www.guitartabs.cc/tabs/t/third_eye_blind/anything_tab_ver_2.html ]
Am  Cadd9  Am                             
           Jackie O with the top down open,
Cadd9
   All the words to what’s unspoken
Am                                        Cadd9
  I’ll put together everything that’s broken just to see you


Chorus (same as before)

Then there is a Gadd9 chord played right after the second chorus for two measures.  (let ring)

Verse (same)

Chorus (same)


Bridge (distorted):
   B5               C5
E|-----------------|-----------------|2x
B|-----------------|-----------------|
G|-4-4-4-4-4-4-4-4-|-5-5-5-5-5-5-5-5-|
D|-4-4-4-4-4-4-4-4-|-5-5-5-5-5-5-5-5-|
A|-2-2-2-2-2-2-2-2-|-3-3-3-3-3-3-3-3-|
E|-----------------|-----------------|


Outro (clean):

   Am               Cadd9
E|-------0------|-----------3---| 
B|----1-------1-|-------3-------|
G|--------------|---------------|
D|-2-------2----|---------------|
A|--------------|---3-----------|
E|--------------|---------------|
  (let ring)







Comments