Third Day - You Make Me Mad Chords & Tabs

 

You Make Me Mad Chords & Tabs

Third Day Chords & Tabs

Version: 1 Type: Bass Tab 0 ratings
1 star 2 stars 3 stars 4 stars 5 stars
comments

You Make Me Mad Bass Tab

   
"You Make Me Mad"
By: Third Day
Album: Conspiracy No. 5
Toonman (bass4jesus@aol.com)
_________________________________________________________________________________

VERSE:         (3x)                 
D-0---0---------3-|-0---------------|
A---------0h3-----|-----3---0-------|
E-----------------|-------------3---|

(Repeat 4 times.  On last repeat, replace 2nd part with:  E-10\--------------|)

                                     (2x)
D
A
E-3---3---3---1-3-----3---1-3-----1-----|-6---6---6---4-6-----6---4-6-----4-----|

D
A
E-5---6---5---6---5---6---5---3-|
_________________________________________________________________________________

CHORUS:
[ Tab from: http://www.guitartabs.cc/tabs/t/third_day/you_make_me_mad_btab.html ]
A-5---5-------5-----------------------------------8-10-10-10-10---8---
E-----------------1---1-------1---3---3-------3-----------------------

A-5---5-------5-------------------------------0-----------2---3---
E-----------------1---1-------1---3---3---0-----------0-----------

A-5---5-------5-----------------------------------8-10-10-10-10---8---
E-----------------1---1-------1---3---3-------3-----------------------

A-5---5-------5---------------------------------------------------
E-----------------1---1-------1---3---3-------3---1-------3-------
_________________________________________________________________________________

(Repeat Verse, Repeat Chorus)

BRIDGE:   G      F   (several times, about 2 measures each)

(Repeat Chorus 3x)
_________________________________________________________________________________

Problems?  Contact bass4jesus@aol.com

Comments