Third Day - When The Rain Comes Chords & Tabs

 

When The Rain Comes Chords & Tabs

Third Day Chords & Tabs

Version: 3 Type: Tab 0 ratings
1 star 2 stars 3 stars 4 stars 5 stars
comments

When The Rain Comes Tab

   
Third Day:
 When the Rain Comes
[ Tab from: http://www.guitartabs.cc/tabs/t/third_day/when_the_rain_comes_tab_ver_3.html ]
e||------------------------------------------------------ >
B||------3-------3-------3-------3---------0--------0---- >
G||----4---4---4---4---0---0---0---0-----0--------0------ >
D||--5-------4-------2-------0---------0--------0-------- >
A||----------------------------------3--------2---------- >
E||------------------------------------------------------ >

e|| > -------------------------
B|| > -------1-----3-----------
G|| > -----2-----2---2---------
D|| > ---2-----0---------------
A|| > -0-----------------------
E|| > -------------------------

Chorus:

G D Em     C    D
Comments