Third Day - When The Rain Comes Chords & Tabs

 

When The Rain Comes Chords & Tabs

Third Day Chords & Tabs

Version: 1 Type: Tab 0 ratings
1 star 2 stars 3 stars 4 stars 5 stars
comments

When The Rain Comes Tab

   
Title: "When the Rain Comes"
Artist: Third Day
Tabbed by: PJ Barnes at http://pjbarnes.com


*** CAPO 1st FRET ***

(All other info on this page is relative to this.
For example, "G" is technically A-flat.)


Picking rhythm:
  G     G/F#        G/E     G/D       G/C     G/B       Am7     D
|-----------------|-----------------|-----------------|-----------------|
|-----3-------3---|-----3-------3---|-------0-------0-|-------1-----3---|
|---4---4---4---4-|---0---0---0---0-|-----0-------0---|-----0-----2---2-|
|-5-------4-------|-2-------0-------|---0-------0-----|---2-----0-------|
|-----------------|-----------------|-3-------2-------|-0---------------|
|-----------------|-----------------|-----------------|-----------------|



VERSE 1:
(picking rhythm)
When the rain comes it seems that everyone has gone away

(picking rhythm)
When the night falls you wonder if you shouldn't find someplace

Am7        D9/F#
To run and hide

Am7        D9/F#
Escape the pain

Am7          Am7/G  D9/F#  D9/E     D   (Dsus   D)
But hiding's such a lonely thing to do


CHORUS:
G       D/F#     Em
I can't stop the rain
[ Tab from: http://www.guitartabs.cc/tabs/t/third_day/when_the_rain_comes_tab.html ]
C                    D
From falling down on you again

G       D/F#     Em
I can't stop the rain

C                    D
But I will hold you 'til it goes away

G   D/F#   Em   C   D7


VERSE 2:
(picking rhythm)
When the rain comes you blame it on the things that you have done

(picking rhythm)
When the storm fades you know that rain must fall on everyone

Am7     D9/F#
So rest awhile

Am7      D9/F#
it'll be alright

Am7    Am7/G  D9/F#     D9/E   D   (Dsus   D)
       No one loves you like I do


(CHORUS)


ENDING:
Am7   D9/F#   Am7   D9/F#
La de da      La de da

Am7   Am7/G   D9/F#   D9/E   D   (Dsus   D6)

(picking rhythm)

(picking rhythm)                G
When the rain comes I will hold you



Non-standard chords:

 D/F#     Am7     Am7/G    D9/F#     D9/E      D6

T00132   X02010   302010   T00210   000210   X00123
------   ------   ------   ------   ------   ------
||||||   ||||*|   ||||*|   ||||*|   ||||*|   ||||||
------   ------   ------   ------   ------   ------ 
Comments