Third Day - Tunnel Chords & Tabs

 

Tunnel Chords & Tabs

Third Day Chords & Tabs

Version: 1 Type: Tab

Tunnel Tab

E  |----9---7------------9--7------------7--9--7--12--7--5---|
B  |-7-7-7-7-7-7H10P7----------10--7--10--10-----------------|
G  |--9---9---9------9p6-------------------------------------|
D  |---------------------------------------------------------|
A  |---------------------------------------------------------|
E  |---------------------------------------------------------|

[ Tab from: http://www.guitartabs.cc/tabs/t/third_day/tunnel_tab.html ]
E  |----9---7-------------------------------------|
B  |-7-7-7-7-7-7h10p7------7----107-7h10p-777h10p7|
G  |--9---9---9------9h6p9---96---9---------------|
D  |----------------------------------------------|
A  |----------------------------------------------|
E  |----------------------------------------------|

E  |----9--7------------7--9--7--12--9--1214-1214--|
B  |----------10--7--10--10------------------------|
G  |-9P6-------------------------------------------|
D  |-----------------------------------------------|
A  |-----------------------------------------------|
E  |-----------------------------------------------|