Third Day - God Of Wonders Chords & Tabs

 

God Of Wonders Chords & Tabs

Third Day Chords & Tabs

Version: 5 Type: Tab

God Of Wonders Tab

   
----------------------------------------------------------------------------
		    God of Wonders Solo - Third Day
---------------------------------------------------------------------------
Tabbed by:bemerboy


Tuning: Standard
b=bend
>=slide

e|--6-6-6-6--5------------------------------------------------------|
B|-------------5-5->-8-8-8-8-8-6------------------------------------|
G|--------------------------------5-5->-7--8-8-8-7------------------|
D|--------------------------------------------------8->-10----------|
A|---------------------------------------------------------10->-8b--|
E|------------------------------------------------------------------|
[ Tab from: http://www.guitartabs.cc/tabs/t/third_day/god_of_wonders_tab_ver_5.html ]
e|-5-6-6-6-6-5------------------------------------------------------|
B|-------------5-5->-8-8-8-8-8-6------------------------------------|
G|--------------------------------5-5->-7--8-8-8-7------------------|
D|--------------------------------------------------8->-10----------|
A|---------------------------------------------------------10->-8---|
E|------------------------------------------------------------------|

or you can play it

e|-------------------------------------------------------------------------|
B|11-11-11-11-10-----------------------------------------------------------|
G|---------------10->-12-12-12-12-10---------------------------------------|
D|-----------------------------------10->-12-13-13-13-12b------------------|
A|--------------------------------------------------------13-13->-15-------|
E|------------------------------------------------------------------15->-13|

e|-------------------------------------------------------------------------|
B|11-11-11-11-10-----------------------------------------------------------|
G|---------------10->-12-12-12-12-10---------------------------------------|
D|-----------------------------------10->-12-13-13-13-12b------------------|
A|--------------------------------------------------------13-13->-15-------|
E|------------------------------------------------------------------15->-13|

thanks and God bless