Third Day - God Of Wonders Chords & Tabs

 

God Of Wonders Chords & Tabs

Third Day Chords & Tabs

Version: 1 Type: Tab 0 ratings
1 star 2 stars 3 stars 4 stars 5 stars
comments

God Of Wonders Tab

   
------------------------------------------------------------
	        God of Wonders - Third Day
------------------------------------------------------------

By: Crazy Dave L.

note: I just started playing a year ago, so I could be way off but it sounds really close to me.

capo first fret (I think).

verse:

     Dsus    Em7    C(something)
E[-----------------------------------------------------]
A[-------------2------3--------------------------------]
D[------0------2------2--------------------------------]
g[------2------0------0--------------------------------]
b[------3------3------3--------------------------------]
e[------3------3------3--------------------------------]

chorus:

        G      D     Am7     C       

E[------3----------------------------------------------]
A[------2--------------------3-------------------------]
D[------0------0------2------2-------------------------]
g[------0------2------0------0-------------------------]
b[------3------3------1------1-------------------------]
e[------3------2------0------0-------------------------]

*1st fret capo, so remeber to add 1 to all numbers for chords only*

verse riff for guitar 2:

E[---------------------------------------------------------]
A[---------------------------------------------------------]
D[---------------------------------------------------------]
g[10----------10-----------10----10----------10------------]
b[---11----11----11----11-----11----11----11----11-------11]
e[------10----------10-----------------10----------11-10---]

chorus riff for guitar 2:
[ Tab from: http://www.guitartabs.cc/tabs/t/third_day/god_of_wonders_tab.html ]
E[---------------------------------------------------------]
A[---------------------------------------------------------]
D[8----------------8----------------8----------------------]
g[--10-------10-12---10-------10-12---10-------10----------]
b[-----11-10------------11-10------------11-10----13-------]
e[---------------------------------------------------------]

solo:

E[---------------------------------------------------------]
A[---------------------------------------------------------]
D[---------------------------------------------10-12-12h13-]
g[------------------10-12-10 10h12-12-12-12-10-------------]
b[10h11-11-11-11-10----------------------------------------]
e[---------------------------------------------------------]

solo cont:

E[---------------------------------------------------------]
A[---------13-15-10-8--------------------------------------]
D[13-13-12-------------------------------------------------]
g[---------------------------------------------------------]
b[---------------------------------------------------------]
e[---------------------------------------------------------]

Verse:

Dsus  Em7           C  
     Lord of all creation
Dsus Em7               C
 Of water, earth, and sky
Dsus        Em7         C
The heavens are You tabernacle 
Dsus  Em7             C   
Glory to the Lord on high

Chorus:

 G                            D
God of wonders beyond our galaxy
         Am7   C
You are holy, holy
 G                              D
The universe declares Your majesty 
         Am7   C
You are holy, holy

Hope this helps.
Comments