Third Day - All The Heavens Chords & Tabs

 

All The Heavens Chords & Tabs

Third Day Chords & Tabs

Version: 3 Type: Tab 0 ratings
1 star 2 stars 3 stars 4 stars 5 stars
comments

All The Heavens Tab

Song: All The Heavens
Artist: Third Day
Album: Offerings
Label: Essential
tabbed by: Phillip Deerwester [cricketseven@hotmail.com]

Capo 8

fret positions relative to capo

Verse: [x2]

-------------------------------------------------------------------|
------0-----0-----------0-------0---0-3-1---0----------------------|
------0---0---2-4p2p0-2-------0---0-------0---0-2---0h2-2-----2-0--|
--0h2---0-----0-------------2---------0-----2-----0---------0------|
--------------------------2-------------3-----------------0--------|
------3-----------------0-----------0-----------2-------2-------3--|


Chorus:
[ Tab from: http://www.guitartabs.cc/tabs/t/third_day/all_the_heavens_tab_ver_3.html ]
--3p2-0---0---0-------0-----------3-2-0-------0---3---2-------0h2p0----|
--0h3-------------3-------3---0---3---3---3-----------3-----3-------3--|
--------0---0---0---0---0---0---0-2-2---0---0---0---0-2-2--------------|
--2---2---2---2---0---2---0-----------2---0---2---2-------0------------|
------------------------------2----------------------------------------|
-----------------------------------------------------------------------|


--3-2-0---0---0-------0--------------------------------------------------|
--3---------------3-------3---0-------0-------1---0h1--------------------|
--2-2---0---0---0---0---0---0-------0---0---0---0-----2---0h2-2-----2-0--|
------2---2---2---0---2---0-------2-------2-------2-----0---------0------|
------------------------------2-2-------------3-----------------0--------|
------------------------------------------------------2-------2-------3--|


Tag ending:

------------------------------|
--1---0h1-----------------0---|
----0-----2---0h2-2-----2-0---| (slow-strum the final chord)
------2-----0---------0---0---|
--3-----------------0-----0---|
----------2-------2-------3---|
Comments