Third Day - All The Heavens Chords & Tabs

 

All The Heavens Chords & Tabs

Third Day Chords & Tabs

Version: 2 Type: Tab 0 ratings
1 star 2 stars 3 stars 4 stars 5 stars
comments

All The Heavens Tab

   
Song: All the Heavens
Band: Third Day
Tab:  Clint Majors clintwonlee@yahoo.com
Label: Essential
Distributor: Provident Music Distribution, Inc.


Capo 3th Fret - All tabs relative


Guitar 1 Intro

(Part 1)

        C    G2            Am             F         G     G2          C
e--------------------------0-------0--0-3-1---0---------------------------
B-------1--1---1/3-3h5---3---1--------------1---1-3---1h3-----3---3---1---
G---0h2---0--0---------5-------2--------------------0--------0--0---0-0---
D--------------------------------2-2------3-----------------0---------2---
A-------3------------------0-------------------------------2----------3---
E-------------------------------------------------3-------3--------------- (x2)

(Part 2)                                                                  

 ------3-5-5-5-3-5-3----8-7-5-5-5-8-7---3-5h7p5--8-7-5-5-5-3-5-3-----
 ----5---------------5-------------------------------------------5---
 --------------------------------------------------------------------
 --------------------------------------------------------------------
 --------------------------------------------------------------------
 --------------------------------------------------------------------

(Part 3)
    F         G     G2          C
 ---1---0-------------------------
 -----1---1-3---1h3-----3---3---1-
 -------------0--------0--0---0-0-
 ---3-----------------0---------2-
 --------------------2----------3-
 -----------3-------3-------------

For the verses guitar 1 plays part 1 and guitar 2 just hits each chord
For the chorus guitar 1 and 2 strum until the last line and guitar 1 plays part 3

[ Tab from: http://www.guitartabs.cc/tabs/t/third_day/all_the_heavens_tab_ver_2.html ]
V1:             C        G2         Am
        As Your children gather in peace
               F      G       G2 C
        All the angels sing in Heaven
                C      G2          Am
        In Your temple all that I seek
             F            G    G2 C
        Is to glimpse Your holy presence


Chorus:         F                       C
        All the heavens cannot hold You in
                 F                G2
        How much less to dwell in me?
              F                  Am
        I can only make my one desire
        F       G     G2 C
        Holding on to Thee


V2:             C       G2           Am
        All the angels exalt You on high
               F       G    G2 C
        What a kingdom to depart!
                C         G2             Am
        But You left Your throne in the sky
                F      G       G2 C
        Just to live inside my heart


Chorus:         F                       C
        All the heavens cannot hold You in
                 F                G
        How much less to dwell in me?
              F                  Am
        I can only make my one desire
        F       G     G2 C
        Holding on to Thee


               F                   Am
        I will always make my one desire
        F       G     G2 C
        Holding on to Thee
        F       G    G2 C
        Hmmm-mm-mm-m-mm-mm
Comments