Thin Lizzy - We Will Be Strong Chords & Tabs

 

We Will Be Strong Chords & Tabs

Thin Lizzy Chords & Tabs

Version: 1 Type: Tab 0 ratings
1 star 2 stars 3 stars 4 stars 5 stars
comments

We Will Be Strong Tab

   
#----------------------------------PLEASE NOTE---------------------------------#
#This file is the author's own work and represents their interpretation of the #
#song. You may only use this file for private study, scholarship, or research. #
#------------------------------------------------------------------------------#

We Will Be Strong (Lynott)
--------------------------

Thin Lizzy:

Phil Lynott: Bass & Vocals
'Snowy' White: Lead & rythm guitars
Scott Gorham: Lead & rythm guitars
Brian Downey: Drums & percussion

tabbed by Brad Larsen

Jason:
I was very surprized to find a tab this good of this opening album track
from the 1980 Chinatown Album. It goes to show that Thin Lizzy's 
often considered 'worst' album actually had excellent songs on it.
Enjoy. The tab key is at the end.


Gtr I (E A D G B E) - 'Gtr. I (Dist.)'
Gtr II (E A D G B E) - 'Gtr.II (Dist.)'
Gtr III (E A D G B E) - 'Extra Rhy. Gtr. (dist.)'


 Harmony Intro
  Q=140
  N.C.
 4/4
  Gtr I
  H    E E.  E.    E.  E. E  E.  E. E
|---------------||--------------------|
|---------------||--------------------|
|--------9------||-9------------------|
|-----------11--||----11--9-11--11--9-|
|---------------||--------------------|
|---------------||--------------------|
|
| Gtr II
| H    E E.  E.    E.  E. E  E.  E. E
|---------------||--------------------|
|---------------||--------------------|
|--------6------||-6------------------|
|------------7--||-----7--6--7---7--6-|
|---------------||--------------------|
|---------------||--------------------|


   E.  E. E  E E.  E.   E.  E. E  E.  E. E
|---------------------|--------------------|
|---------------------|--------------------|
|--------------9------|-9------------------|
|-11--11--9-------11--|----11--9-11--11--9-|
|-----------12--------|--------------------|
|---------------------|--------------------|
|
|  E.  E. E  E E.  E.   E.  E. E  E.  E. E
|---------------------|--------------------|
|---------------------|--------------------|
|--------------6------|-6------------------|
|--7---7--6--------7--|-----7--6--7---7--6-|
|------------9--------|--------------------|
|---------------------|--------------------|


   E.  E. E  E   E.  E.    E.   E.  E  E.   E.  E
|-----------------------|-------------------------|
|-----------------------|-------------------------|
|-----------------------|-------------------------|
|-11--11--9----/13------|-13--/14--13-14--/16--14-|
|-----------12------16--|-------------------------|
|-----------------------|-------------------------|
|
|  E.  E. E  E   E.  E.    E.   E.  E  E.   E.  E
|-----------------------|-------------------------|
|-----------------------|-------------------------|
|-----------------------|-------------------------|
|--7---7--6-----/9---7--|--9--/11---9-11--/13--11-|
|------------9----------|-------------------------|
|-----------------------|-------------------------|


   E.  E.  E  E.  E.  E    E.  E.  E  E.  E.  E
|-----------------------|-----------------------|
|-----------------------|----------------14-----|
|-----13-----13--14--13-|-14--16--14-16------16-|
|-16------16------------|-----------------------|
|-----------------------|-----------------------|
|-----------------------|-----------------------|
|
|  E.  E.  E  E.  E.  E    E.  E.  E  E.  E.  E
|-----------------------|-----------------------|
|-----------------------|-----------------------|
|----------------11-----|-11--13--11-13--14--13-|
|-13--14--13-14------14-|-----------------------|
|-----------------------|-----------------------|
|-----------------------|-----------------------|


                                   ~~~~~~~~~~~~
   E.  E.  E  E.  E.  E    E      +H      +Q.       Q.   E H
|--------------------14-|-14b16==(14)----(14)r---|-16\----------||
|-14--16--14-16--17-----|------------------------|--------------||
|-----------------------|------------------------|--------------||
|-----------------------|------------------------|--------------||
|-----------------------|------------------------|--------------||
|-----------------------|------------------------|--------------||
|
|                                  ~~~~~~~~~~~~
|  E.  E.  E  E.  E.  E    E      +H      +Q.       Q.   E H
|-----------------------|------------------------|--------------||
|-----12-----12--14--16-|-16b17==(16)----(16)r---|-17\----------||
|-14------14------------|------------------------|--------------||
|-----------------------|------------------------|--------------||
|-----------------------|------------------------|--------------||
|-----------------------|------------------------|--------------||


 1st and 2nd Verse
  C#m                               F#5                 G#5             C#m
    PM  PM--|                               PM  PM  PM
  E E E E E E E E   +Q    E E E E E E   +E  E E E E E E E   +Q.    H    E
|---------------4-|-(4)\--4---4-4-----|-------------------|----------------|
|---------------5-|-(5)\--5---5-4-----|-------------------|----------------|
|-6---6-------6---|-------------------|-------------------|-------------6--|
|-6---6-------6---|-----------------4-|-(4)-------------6-|-(6)\--------6--|
|-4-4---4-4-4-----|-----------------4-|-(4)---4---4---4-6-|-(6)\-----------|
|-----------------|-----------------2-|-(2)-2-2-2-2-2-2-4-|-(4)\-----------|


                                  F#5                 G#5             C#m
      PM  PM  PM|                         PM  PM--|
  +E  E E E E E E E   +Q.    H    E   +E  E E E E E E E   +Q.    H    E
|-----------------4-|-(4)\----------|-------------------|----------------|
|-----------------5-|-(5)\----------|-------------------|----------------|
|-(6)---6---6-------|---------------|-------------------|-------------6--|
|-(6)---6---6-------|-------------4-|-(4)-------------6-|-(6)\--------6--|
|-----4---4---4-4---|-------------4-|-(4)---4---4---4-6-|-(6)\-----------|
|-------------------|-------------2-|-(2)-2-2-2-2-2-2-4-|-(4)\-----------|


                                  F#5                 G#5             C#m
      PM  PM  PM|                         PM  PM--|
  +E  E E E E E E E   +Q.    H    E   +E  E E E E E E E   +Q.    H    E
|-----------------4-|-(4)\----------|-------------------|----------------|
|-----------------5-|-(5)\----------|-------------------|----------------|
|-(6)---6---6-------|---------------|-------------------|-------------6--|
|-(6)---6---6-------|-------------4-|-(4)-------------6-|-(6)\--------6--|
|-----4---4---4-4---|-------------4-|-(4)---4---4---4-6-|-(6)\--------4--|
|-------------------|-------------2-|-(2)-2-2-2-2-2-2-4-|-(4)\-----------|


                                      F#5                 G#5             C#m
      PM  PM  PM                              PM  PM  PM
  +E  E E E E E E E   +Q    E E E E E E   +E  E E E E E E E   +Q.    H    E
|-----------------4-|-(4)\--7---7-4-----|-------------------|----------------|
|-----------------5-|-(5)\--5---5-4-----|-------------------|----------------|
|-(6)---6---6---6---|-------------------|-------------------|-------------6--|
|-(6)---6---6---6---|-----------------4-|-(4)-------------6-|-(6)\--------6--|
|-(4)-4-4-4-4-4-----|-----------------4-|-(4)---4---4---4-6-|-(6)\--------4--|
|-------------------|-----------------2-|-(2)-2-2-2-2-2-2-4-|-(4)\-----------|


                                        Choruses
  Slow a bit Q=138
                                      $
                                      $$
                                    E5              E5/D#              C#5
      PM----|
  +E  E E E E E E E   E E E E E E E E    +H..       E   +E  E H    +E  E
|-------------------|-----------------||--------------|-------------------|
|-------------------|-----------------||--------------|-------------------|
|-(6)---------6-6-6-|-6-6-6-6-6-6-6-9-||-(9)--------9-|-(9)------------6--|
|-(6)-6-6-6-6-6-6-6-|-6-6-6-6-6-6-6-9-||-(9)--------9-|-(9)---9----(9)-6--|
|-(4)-4-4-4-4-4-4-4-|-4-4-4-4-4-4-4-7-||-(7)--------6-|-(6)-6----------4--|
|-------------------|-----------------||--------------|-------------------|


                  G#5                C#5                 G#5                A5
      PM  PM                       PM        PM  PM                       PM
  +E  E E E E E E E   +E  E Q  Q   E E   +E  E E E E E E E   +E  E Q  Q   E E
|-------------------|-------4--4\------|-------------------|-------4--4\-------|
|-------------------|-------4--4\------|-------------------|-------4--4\-------|
|-(6)---6---6-6-----|----------------6-|-(6)---6---6-6-----|----------------2--|
|-(6)---6---6-6-x-6-|-(6)-6----------6-|-(6)---6---6-6-x-6-|-(6)-6----------2--|
|-(4)-4-4-4-----x-6-|-(6)-6----------4-|-(4)-4-4-4-----x-6-|-(6)-6----------0--|
|-----------------4-|-(4)-4--------4---|-----------------4-|-(4)-4--------4----|


             B5                  E5                  E5/D#              C#5
                     PM  PM    PM        PM  PM    PM
  +H..       E   +E  E E E E E E E   +E  E E E E E E E   +E  E H    +E  E
|--------------|-------------------|-------------------|-------------------|
|--------------|-------------------|-------------------|-------------------|
|-(2)--------4-|-(4)---4---4-4---9-|-(9)---9---9-9---9-|-(9)------------6--|
|-(2)--------4-|-(4)---4---4-4---9-|-(9)---9---9-9---9-|-(9)---9----(9)-6--|
|-(0)--------2-|-(2)-2-2-2-2-2-2-7-|-(7)-7-7-7-7-7-7-6-|-(6)-6----------4--|
|--------------|-------------------|-------------------|-------------------|


                  G#5                C#5                 G#5                A5
      PM  PM                       PM        PM  PM                       PM
  +E  E E E E E E E   +E  E Q  Q   E E   +E  E E E E E E E   +E  E Q  Q   E E
|-------------------|-------4--4\------|-------------------|-------4--4\-------|
|-------------------|-------4--4\------|-------------------|-------4--4\-------|
|-(6)---6---6-6-----|----------------6-|-(6)---6---6-6-----|----------------2--|
|-(6)---6---6-6-x-6-|-(6)-6----------6-|-(6)---6---6-6-x-6-|-(6)-6----------2--|
|-(4)-4-4-4-----x-6-|-(6)-6----------4-|-(4)-4-4-4-----x-6-|-(6)-6----------0--|
|-----------------4-|-(4)-4--------4---|-----------------4-|-(4)-4--------4----|


           To Coda
           To Coda
                  B5              C#5
      PM  PM    PM
  +E  E E E E E E E   +H.       E E
|-------------------|---------------||
|-------------------|---------------||
|-(2)---2---2-2---4-|-(4)-----------||
|-(2)---2---2-2---4-|-(4)-----------||
|-(0)-0-0-0-0-0-0-2-|-(2)---------4-||
|-------------------|---------------||
|
| Gtr II
|  W                   W
|-------------------|---------------||
|-------------------|---------------||
|-------------------|---------------||
|-------------------|---------------||
|-------------------|---------------||
|-------------------|---------------||
|
| Gtr III
|  W                   H..        E
|-------------------|---------------||
|-------------------|---------------||
|-------------------|-------------6-||
|-------------------|-------------6-||
|-------------------|-------------4-||
|-------------------|---------------||


 Pre-Chorus I
                  B5                    F#5
   ~~~~~~~~~~~    ~~~~~~~~~
                                |-3-|
  +H      +E  E E E   +H      E S S S E E
|-------------------|----------------------|
|-------------------|----------------------|
|-------------------|----------------------|
|-------------------|----------------------|
|-(4)-----(4)-4-6-7-|-(7)-----9-7h9p7-6----|
|-------------------|-------------------9--|
|
|                                       ~
|  W                   H..              E
|-------------------|----------------------|
|-------------------|----------------------|
|-------------------|----------------------|
|-------------------|----------------------|
|-------------------|----------------------|
|-------------------|-------------------2--|
|
| +H..            E   +H..              E
|-------------------|----------------------|
|-------------------|----------------------|
|-(6)-------------4-|-(4)------------------|
|-(6)-------------4-|-(4)---------------4--|
|-(4)-------------2-|-(2)---------------4--|
|-------------------|-------------------2--|


                  G#5            C#5                 B5                    F#5
   ~~~~~~~~~~~         ~~~~           ~~~~~~~~~~~    ~~~~~~~~~
                                                                   |-3-|
  +H      +E  E E E   +H..       E   +H      +E  E E E   +H      E S S S E E
|-------------------|--------------|-------------------|----------------------|
|-------------------|--------------|-------------------|----------------------|
|-------------------|--------------|-------------------|----------------------|
|-------------------|--------------|-----------------6-|-(6)-----7-6h7p6------|
|---------------7-6-|-(6)--------7-|-(7)-----(7)-7-9---|-----------------9-7--|
|-(9)-----(9)-9-----|--------------|-------------------|----------------------|
|
|  ~~~~                ~~~~           ~~~~~~~~~~~    ~~~~~~~~~
|                                                                  |-3-|
| +H      +E  E E E   +H..       E   +H      +E  E E E   +H      E S S S E E
|-------------------|--------------|-------------------|----------------------|
|-------------------|--------------|-------------------|----------------------|
|-------------------|--------------|-------------------|----------------------|
|-------------------|--------------|-------------------|---------4-2h4p2-1----|
|-------------------|------------4-|-(4)-----(4)-4-6-7-|-(7)---------------4--|
|-(2)-----(2)-2-5-4-|-(4)----------|-------------------|----------------------|
|
| +H..            E   +H..       E   +H..            E   +H..              E
|-------------------|--------------|-------------------|----------------------|
|-------------------|--------------|-------------------|----------------------|
|-------------------|------------6-|-(6)-------------4-|-(4)------------------|
|-(4)-------------6-|-(6)--------6-|-(6)-------------4-|-(4)---------------4--|
|-(4)-------------6-|-(6)--------4-|-(4)-------------2-|-(2)---------------4--|
|-(2)-------------4-|-(4)----------|-------------------|-------------------2--|


                    G#5                 C#5
     ~~~~~~~~~~~         ~~~~~~~~~~~
     H      +E  E E E   +H      +E  E E E
||--------------------|-------------------|
||o-------------------|-------------------|
||--------------------|-------------------|
||--------------------|-------------------|
||o---------------7-6-|-(6)-----(6)-4-6-7-|
||---9------(9)-9-----|-------------------|
|
|    ~~~~                ~~~~~~~~~~~
|    H      +E  E E E   +H      +E  E E E
||--------------------|-------------------|
||o-------------------|-------------------|
||--------------------|-------------------|
||--------------------|-------------------|
||o-------------------|---------------2-4-|
||---2------(2)-2-5-4-|-(4)-----(4)-4-----|
|
|   +H..            E   +H..            E
||--------------------|-------------------|
||o-------------------|-------------------|
||--------------------|-----------------6-|
||--(4)-------------6-|-(6)-------------6-|
||o-(4)-------------6-|-(6)-------------4-|
||--(2)-------------4-|-(4)---------------|


                  B5                     F#5
   ~~~~~~~~~~~    ~~~~~~~~~
                                 |-3-|
  +H      +E  E E E   +Q.    E E S S S E E
|-------------------|-----------------------||
|-------------------|----------------------o||
|-------------------|-----------------------||
|-----------------6-|-(6)----6-7-6h7p6------||
|-(7)-----(7)-7-9---|------------------9-7-o||
|-------------------|-----------------------||
|
|  ~~~~~~~~~~~    ~~~~~~~~~
|                                |-3-|
| +H      +E  E E E   +Q.    E E S S S E E
|-------------------|-----------------------||
|-------------------|----------------------o||
|-------------------|-----------------------||
|---------------1-2-|-(2)----2-4-2h4p2-1----||
|-(4)-----(4)-4-----|--------------------4-o||
|-------------------|-----------------------||
|
| +H..            E   +H..               E
|-------------------|-----------------------||
|-------------------|----------------------o||
|-(6)-------------4-|-(4)-------------------||
|-(6)-------------4-|-(4)----------------4--||
|-(4)-------------2-|-(2)----------------4-o||
|-------------------|--------------------2--||


                                      Slo
                  G#5                 C#5
   ~~~~~~~~~~~         ~~~~~~~~~~~
   H      +E  E E E   +H      +E  E E E
|-------------------|-------------------|
|-------------------|-------------------|
|-------------------|-----------------6-|
|-------------------|-----------------6-|
|---------------7-6-|-(6)-----(6)-4-6-4-|
|--9------(9)-9-----|-------------------|
|
|  ~~~~                ~~~~~~~~~~~    ~~~
|  H      +E  E E E   +H      +E  E E E
|-------------------|-------------------|
|-------------------|-------------------|
|-------------------|-------------------|
|-------------------|-------------------|
|-------------------|---------------2-4-|
|--2------(2)-2-5-4-|-(4)-----(4)-4-----|
|
|                                     ~~~
| +H..            E   +H..            E
|-------------------|-------------------|
|-------------------|-------------------|
|-------------------|-------------------|
|-(4)-------------6-|-(6)---------------|
|-(4)-------------6-|-(6)-------------7-|
|-(2)-------------4-|-(4)---------------|


 w a bit Q=136
                            D.S. al Coda
                                      E5
      PM----|
  +E  E E E E E E E    E  E E E E E E E
|-------------------|--------------------||
|-------------------|--------------------||
|-(6)---------6-6-6-|--6--6-6-6-6-6-6-9--||
|-(6)-6-6-6-6-6-6-6-|--6--6-6-6-6-6-6-9--||
|-(4)-4-4-4-4-4-4-4-|--4--4-4-4-4-4-4-7--||
|-------------------|--------------------||
|
|~~~~~~~~~~~~~~~~~~~~~~~~~
| +W                  +W
|-------------------|--------------------||
|-------------------|--------------------||
|-------------------|--------------------||
|-------------------|--------------------||
|-(4)---------------|-(4)----------------||
|-------------------|--------------------||
|
|~~~~~~~~~~~~~~~~~~~~~~~~~
| +W                  +W
|-------------------|--------------------||
|-------------------|--------------------||
|-------------------|--------------------||
|-------------------|--------------------||
|-(7)---------------|-(7)----------------||
|-------------------|--------------------||


  &
  B5        C#5                                                      F#5
  W              W                  E E +E     +E  +E     +E  +E     +E
|-------------|-------------------|--------------------------------------||
|-------------|-------------------|--------------------------------------||
|-------------|-------------------|---9-(9)b11r(9)-(9)b11r(9)-(9)b11r(9)-||
|-------------|-------------------|--------------------------------------||
|-------------|-------------------|--------------------------------------||
|-------------|-------------------|--------------------------------------||
|
|                   PM----|
| H.      E E   +E  E E E E E E E   E Q         H                     E
|-------------|-------------------|--------------------------------------||
|-------------|-------------------|--------------------------------------||
|-4---------6-|-(6)---------6-6-6-|-6------------------------------------||
|-4---------6-|-(6)-6-6-6-6-6-6-6-|-6---------------------------------4--||
|-2---------4-|-(4)-4-4-4-4-4-4-4-|-4---------------------------------4--||
|-------------|-------------------|-----------------------------------2--||


 Guitar Solo
  Accel Q=137
                        G#5                                      C#5
          ~~~~                                    ~~~~~
   E     +H.             E        +E    +E       +H          S S  E
|------------------------------|------------------------------------|
|------------------------------|------------------------------------|
|--9b11==(9)r-----------11b13==|=(11)r-(11)b13==(11)r-------11-9----|
|------------------------------|---------------------------------11-|
|------------------------------|------------------------------------|
|------------------------------|------------------------------------|
|
|                                        PM           PM  PM
| +E      E   E E E E E  E        +E     E        E   E E E  E    E
|------------------------------|------------------------------------|
|------------------------------|------------------------------------|
|------------------------------|----------------------------------6-|
|-(4)---------4---4---4--6-----|--(6)-------------6-----6----6----6-|
|-(4)---------4---4---4--6-----|--(6)-------------6-----6----6----4-|
|-(2)-----2---2-2-2-2-2--4-----|--(4)----4--------4---4-4-4--4------|


                          Bsus4                                    F#5
                                                                     ~~~~
   E   S S  S S E   H          E   S S  S  S E  E      +E    E      +E
|---------------------------|-------------------------------------------|
|---------------------------|-----12p9-12-12-9-12b14==(12)r-12b14==(12)-|
|--9------------------------|-------------------------------------------|
|-----11p9--------/11-------|-------------------------------------------|
|----------11-9s7-----------|-------------------------------------------|
|---------------------------|-------------------------------------------|
|
|      PM       PM    PM           PM        PM
| +E   E    E   E   E E E E   +E   E    E    E  E       E    E       E
|---------------------------|-------------------------------------------|
|-------------------------5-|-(5)-------5-------5-------5---------------|
|-(6)-------6-------6---6-4-|-(4)-------4-------4-------4----4----------|
|-(6)-------6-------6---6-2-|-(2)-------2-------2-------2----2-------4--|
|-(4)--4----4---4---4-4-4-2-|-(2)--2----2----2--2-------2------------4--|
|---------------------------|----------------------------------------2--|


                                    G#5                                       C#5
    ~~~~~
   +Q     E  E  S     +S  S  S S  S S S    S     +S  S  S S  S S  S S S E S S S S
|---------9-11-11b12r(11)-9----9--------|-----------------------------------------|
|-(12)r---------------------12---12-9---|-----------------------------------------|
|---------------------------------------|-11b12r(11)-9-11p9-----------------------|
|---------------------------------------|-------------------11p9------------------|
|---------------------------------------|------------------------11-9-9s7-9-7---7-|
|---------------------------------------|-------------------------------------9---|
|
|                                                    PM        PM       PM
|  +E   E E  E  E         E    E    E     +E         E    E    E    E   E E   E
|---------------------------------------|-----------------------------------------|
|---------------------------------------|-----------------------------------------|
|---------------------------------------|-------------------------------------6---|
|--(4)----4-----4--------------4----6---|-(6)-------------6---------6-----6---6---|
|--(4)----4-----4--------------4----6---|-(6)-------------6---------6-----6---4---|
|--(2)--2-2--2--2---------2----2----4---|-(4)--------4----4----4----4---4-4-------|


                             Bsus4                                      F#5
                                                                    ~~~~~
                                               |-3--|
  +S  S E  Q.      S S  S  S S  S    E     +E  S  S S  E E  E      +Q
|-----------------12p9-12-12p9----|-12b14r(12)-9h12p9----9-----------------|
|------------------------------12-|-------------------12---12b14==(12)r----|
|---------------------------------|----------------------------------------|
|---------------------------------|----------------------------------------|
|-(7)-7---------------------------|----------------------------------------|
|-------9\------------------------|----------------------------------------|
|
|       PM    PM   PM                       PM         PM
| +E    E  E  E E  E    E    E      +E      E  E       E E  E       E   E
|---------------------------------|----------------------------------------|
|----------------------------5----|-(5)--------5---------5--5--------------|
|-(6)------6----6-------6----4----|-(4)--------4---------4--4-------4------|
|-(6)------6----6-------6----2----|-(2)--------2---------2--2-------2---4--|
|-(4)---4--4--4-4--4----4----2----|-(2)-----2--2-------2-2--2-----------4--|
|---------------------------------|-------------------------------------2--|


                                    G#5                                   C#5
                         ~~~~~                          ~~~~~
   S   S S  S E  E      +Q     S  S S  S    E   E      +Q     S  S S  S E  E
|--9h=12p9----9----------------9h12p9----|--9-----------------9h12p9----9--------|
|----------12---12b14==(12)r----------12-|-----12b14==(12)r----------12---12b14==|
|----------------------------------------|---------------------------------------|
|----------------------------------------|---------------------------------------|
|----------------------------------------|---------------------------------------|
|----------------------------------------|---------------------------------------|
|
|                                               PM          PM     PM
| +E     E    E  E       E   E E    E      +E   E       E   E E    E    E  E
|----------------------------------------|---------------------------------------|
|----------------------------------------|---------------------------------------|
|----------------------------------------|---------------------------------6-----|
|-(4)---------4----------4-----4----6----|-(6)----------6-----6---------6--6-----|
|-(4)---------4----------4-----4----6----|-(6)----------6-----6---------6--4-----|
|-(2)----2----2--2-------2---2-2----4----|-(4)--4-------4---4-4----4----4--------|


                                     Bsus4                              F#5
    ~~~~~
                                |---3---|    |---3---|  |--3---|
   +E    E  E  E     +S   S  E  E  E    E    E  E    E  E E    E Q    Q
|-------12-14-14b16r(14)-12----14-12------|-12--9---12-12-9---12-9\--------|
|-(12)r---------------------14---------14-|--------------------------------|
|-----------------------------------------|--------------------------------|
|-----------------------------------------|--------------------------------|
|-----------------------------------------|--------------------------------|
|-----------------------------------------|--------------------------------|
|
|        PM    PM            PM                   PM        PM
|  +E    E  E  E      E      E  E    E      +E    E     E   E    E  E E E
|-----------------------------------------|--------------------------------|
|------------------------------------5----|-(5)---------5--------5--5------|
|--(6)------6---------6---------6----4----|-(4)---------4--------4--4-4----|
|--(6)------6---------6---------6----2----|-(2)---------2--------2--2-2-4--|
|--(4)---4--4--4------4------4--4----2----|-(2)---2-----2---2----2--2---4--|
|-----------------------------------------|-----------------------------2--|


                                            G#5                                                C#5
  Gtr I
   S  S  s  S  S  S  S  S  S  S  S  S  S  S  S  S    S   S  S  S  S  S  S  S  S  S  S  S  S  S  S  S
|-16p14----16p14----16p14----16p14----16p14----14-|--------------------------------------------------|
|-------16-------16-------16-------16-------16----|-16p=14----16p14----16p14----16p14----16p14----14-|
|-------------------------------------------------|--------16-------16-------16-------16-------16----|
|-------------------------------------------------|--------------------------------------------------|
|-------------------------------------------------|--------------------------------------------------|
|-------------------------------------------------|--------------------------------------------------|
|
| Gtr II
|  S  S  S  S  S  S  S  S  S  S  S  S  S  S  S  S    S   S  S  S  S  S  S  S  S  S  S  S  S  S  S  S
|-------------------------------------------------|--------------------------------------------------|
|-17p14----17p14----17p14----17p14----17p14----14-|--------------------------------------------------|
|-------16-------16-------16-------16-------16----|-16p=13----16p13----16p13----16p13----16p13----13-|
|-------------------------------------------------|--------16-------16-------16-------16-------16----|
|-------------------------------------------------|--------------------------------------------------|
|-------------------------------------------------|--------------------------------------------------|
|
| Gtr III
|                                                           PM          PM          PM
|  E     E     E     E     E     E     E     E      +E      E     E     E     E     E     E     E
|-------------------------------------------------|--------------------------------------------------|
|-------------------------------------------------|--------------------------------------------------|
|-------------------------------------------------|---------------------------------------------6----|
|--4-----------4-----------4-----------4-----6----|-(6)-----------6-----------6-----------6-----6----|
|--4-----------4-----------4-----------4-----6----|-(6)-----------6-----------6-----------6-----4----|
|--2-----2-----2-----2-----2-----2-----2-----4----|-(4)-----4-----4-----4-----4-----4-----4----------|


                                             Bsus4
   S   S  S  S  S  S  S  S  S  S  S  S  S  S  S  S
|-----------------------------------------------------|
|-----------------------------------------------------|
|-15p=13----15p13----15p13----15p13----15p13----13----|
|--------14-------14-------14-------14-------14-------|
|-----------------------------------------------------|
|-----------------------------------------------------|
|
|  S   S  S  S  S  S  S  S  S  S  S  S  S  S  S  S
|-----------------------------------------------------|
|-----------------------------------------------------|
|-----------------------------------------------------|
|-16p=14----16p14----16p14----16p14----16p14----14----|
|--------16-------16-------16-------16-------16-------|
|-----------------------------------------------------|
|
|         PM          PM          PM
| +E      E     E     E     E     E     E     E
|-----------------------------------------------------|
|---------------------------------------------5-------|
|-(6)-----------6-----------6-----------6-----4-------|
|-(6)-----------6-----------6-----------6-----2-------|
|-(4)-----4-----4-----4-----4-----4-----4-----2-------|
|-----------------------------------------------------|


                                   F#5                          G#5
                                                            ~~~~~~~~~~~
                |--3--|
   E   E  E  E  S  S  S  E  S  +S   E    E   E  E  E  E.    Q      +S
|-------------------------------------|--------------------------------|
|-------------------------------------|--------14-17-14----14-----(14)-|
|--------13-14-13h14p13----13-(13)s14-|-14--14-------------------------|
|-14--16----------------16------------|--------------------------------|
|-------------------------------------|--------------------------------|
|-------------------------------------|--------------------------------|
|
|                                                           ~~~~~~~~~~~
|               |--3--|
|  E   E  E  E  S  S  S  E  S  +S   E    E   E  E  E  E.    Q      +S
|-------------------------------------|--------------------------------|
|-------------------------------------|--------------17----17-----(17)-|
|-------------------------------------|--------14-18-------------------|
|-----13-14-16-14h16p14p13-14-(14)s16-|-16--16-------------------------|
|-16----------------------------------|--------------------------------|
|-------------------------------------|--------------------------------|
|
|      PM    PM
| +E   E  E  E  E        E  E       E   +E   E  E  E  E  E    E E
|-------------------------------------|--------------------------------|
|-(5)-----5-----5--------5------------|--------------------------------|
|-(4)-----4-----4--------4--4---------|--------------------------------|
|-(2)-----2-----2--------2--2-------4-|-(4)-----4-----4-------4-6------|
|-(2)--2--2--2--2--------2----------4-|-(4)-----4-----4-------4-6------|
|-----------------------------------2-|-(2)--2--2--2--2--2----2-4------|

[ Tab from: http://www.guitartabs.cc/tabs/t/thin_lizzy/we_will_be_strong_tab.html ]
                          A5                              B5
                      ~~~~~~~~~~~                    ~~~~~~~
   E   E  E  E  E.    Q      +S     E   E  E  E E.   E.   E
|--------------------------------|----------------------------|
|-----------14-12----12-----(12)-|-----------10-9----9----9---|
|--------13----------------------|---------9------------------|
|-----14-------------------------|------9---------------------|
|--------------------------------|----------------------------|
|--------------------------------|----------------------------|
|
|                     ~~~~~~~~~~~                    ~~
|  E   E  E  E  E.    Q      +S     E   E  E  E E.   E.   E
|--------------------------------|----------------------------|
|--------------------------------|----------------------------|
|-----------14-13----13-----(13)-|-----------11-9----9----9---|
|--------14----------------------|--------11------------------|
|-----16-------------------------|-----11---------------------|
|--------------------------------|----------------------------|
|
|      PM    PM    PM                   PM    PM   PM
| +E   E  E  E  E  E    E E        +E   E  E  E E  E    E E
|--------------------------------|----------------------------|
|--------------------------------|----------------------------|
|--------------------------------|------------------------4---|
|-(6)-----6-----6-------6-7------|-(7)-----7----7-------7-4---|
|-(6)-----6-----6-------6-7------|-(7)-----7----7-------7-2---|
|-(4)--4--4--4--4--4----4-5------|-(5)--5--5--5-5--5----5-----|


                         A5                               B5
             ~~~~~~~~~~~~
      |-3--|                     |-3--|   |-3-|   |-3-|
   E  S  S S H       +E  E    E  S  S S E S S S E S S S E E
|--------------------------|--------------------------------|
|-10--9h10p9-7-------(7)-9-|-10--9h10p9s7-7h9p7s5-5h7p5s4-4-|
|--------------------------|--------------------------------|
|--------------------------|--------------------------------|
|--------------------------|--------------------------------|
|--------------------------|--------------------------------|
|
|            ~~~~~~~~~~~~
|     |-3--|                     |-3--|   |-3-|   |-3-|
|  E  S  S S H       +E  E    E  S  S S E S S S E S S S E E
|--------------------------|--------------------------------|
|--------------------------|--------------------------------|
|-11--9h11p9-8-------(8)-9-|-11--9h11p9s8-8h9p8s6-6h8p6s4-4-|
|--------------------------|--------------------------------|
|--------------------------|--------------------------------|
|--------------------------|--------------------------------|
|
|     PM       PM  PM            PM       PM      PM
| +E  E      E E E E  E  E   +E  E      E E     E E     E E
|--------------------------|--------------------------------|
|--------------------------|--------------------------------|
|-(4)--------4---4----4----|------------------------------4-|
|-(4)--------4---4----4--7-|-(7)--------7-------7-------7-4-|
|-(2)-2------2-2-2-2--2--7-|-(7)--------7-------7-------7-2-|
|------------------------5-|-(5)-5------5-5-----5-5-----5---|


                              C#5
      |-3-|   |-3-|   |-3-|
   E  S S S E S S S E S S S E E
|-------------------------------|
|--9--7h9p7s5-5h7p5s4-4h5p4s2-4-|
|-------------------------------|
|-------------------------------|
|-------------------------------|
|-------------------------------|
|
|     |-3-|   |-3-|   |-3-|
|  E  S S S E S S S E S S S E E
|-------------------------------|
|-------------------------------|
|--9--8h9p8s6-6h8p6s4-4h6p4---4-|
|---------------------------6---|
|-------------------------------|
|-------------------------------|
|
|     PM      PM      PM
| +E  E     E E     E E     E E
|-------------------------------|
|-------------------------------|
|-(4)-------4-------4-------4-6-|
|-(4)-------4-------4-------4-6-|
|-(2)-2-----2-2-----2-2-----2-4-|
|-------------------------------|


  Slow a bit Q=136
                               D#5                                                 E5
      |-3-|   |-3-|   |-3-|    |-3--|        |--3--|     |--3--|     |--3--|
   E  S S S E S S S E S S S  E S  S S    E   S  S  S  E  S  S  S  E  S  S  S  S  S  E
|-------------------------------------|--------------------------------------11s12-14-|
|--5--4h5p4-7-5h7p5-9-7h9p7-10-9h10p9-|-12--10h12p10-14-12h14p12-16-14h16p14----------|
|-------------------------------------|-----------------------------------------------|
|-------------------------------------|-----------------------------------------------|
|-------------------------------------|-----------------------------------------------|
|-------------------------------------|-----------------------------------------------|
|
|     |-3-|   |-3-|   |-3-|    |-3--|        |--3--|     |--3--|     |--3--|
|  E  S S S E S S S E S S S  E S  S S    E   S  S  S  E  S  S  S  E  S  S  S  E     E
|-------------------------------------|-----------------------------------------------|
|-------------------------------------|--------------------------------------------17-|
|--6--4h6p4-8-6h8p6-9-8h9p8-11-9h11p9-|-13--11h13p11-14-13h14p13-16-14h16p14-18-------|
|-------------------------------------|-----------------------------------------------|
|-------------------------------------|-----------------------------------------------|
|-------------------------------------|-----------------------------------------------|
|
|     PM      PM      PM                     PM          PM          PM
| +E  E     E E     E E      E E        +E   E        E  E        E  E        E     E
|-------------------------------------|-----------------------------------------------|
|-------------------------------------|-----------------------------------------------|
|-(6)-------6-------6--------6-8------|-(8)-----------8-----------8-----------8-----9-|
|-(6)-------6-------6--------6-8------|-(8)-----------8-----------8-----------8-----9-|
|-(4)-4-----4-4-----4-4------4-6------|-(6)--6--------6--6--------6--6--------6-----7-|
|-------------------------------------|-----------------------------------------------|


   H         E.       +Q       +S     Q.    E H
|-12--------14b16====(14)r====(14)-|-12\-----------||
|----------------------------------|---------------||
|----------------------------------|---------------||
|----------------------------------|---------------||
|----------------------------------|---------------||
|----------------------------------|---------------||
|
|  H         E.       +Q       +S     Q.    E H
|----------------------------------|---------------||
|-----------16b17====(16)r====(16)-|---------------||
|-16-------------------------------|-16\-----------||
|----------------------------------|---------------||
|----------------------------------|---------------||
|----------------------------------|---------------||
|
| +E  E E E  E     E      E E         Q   Q   H
|----------------------------------|---------------||
|----------------------------------|---------------||
|-(9)-9-9-9--9-----9------9-9------|--9------------||
|-(9)-9-9-9--9-----9------9-9------|--9------------||
|-(7)-7-7-7--7-----7------7-7------|--7------------||
|----------------------------------|---------------||


 Pre-Chorus II
  C#5                             B5
  ~~~~~~~~~~~~~~                    ~~~~
  H      +E       E      E          E
|--------------------------------------|
|--------------------------------------|
|--------------------------------------|
|--------------------------------------|
|-4------(4)------4------6----------7--|
|--------------------------------------|
|
|                                   ~~~~
| H       E      +S   S  S  S      +E
|--------------------------------------|
|--------10b12==(10)r---12-12b14==(12)-|
|--------------------------------------|
|--------------------------------------|
|--------------------------------------|
|--------------------------------------|
|
| H..                               E
|--------------------------------------|
|--------------------------------------|
|-6---------------------------------4--|
|-6---------------------------------4--|
|-4---------------------------------2--|
|--------------------------------------|


                          F#5                   G#5
 ~~~~~~~                       ~~~~~~~~~~~~~
                  |-3-|
   +Q.    E   E   S S S E E    H        +E  E E E
|---------------------------|---------------------|
|---------------------------|---------------------|
|---------------------------|---------------------|
|---------------------------|---------------------|
|--(7)----7---9---7h9p7-6-4-|---------------------|
|---------------------------|--2--------(2)-2-5-4-|
|
|~~~~~~~~~~~~~~~~~
|  +H        +H                Q.    Q.       E E
|---------------------------|---------------------|
|-(12)------(12)r-----------|---------------------|
|---------------------------|--------9--------6---|
|---------------------------|-------------------9-|
|---------------------------|---------------------|
|---------------------------|---------------------|
|
|  +H..                   E   +H..              E
|---------------------------|---------------------|
|---------------------------|---------------------|
|--(4)----------------------|---------------------|
|--(4)--------------------4-|-(4)---------------6-|
|--(2)--------------------4-|-(4)---------------6-|
|-------------------------2-|-(2)---------------4-|


                           C#5                 B5                    F#5
   ~~~~~~~~~~~~~~~~~~           ~~~~~~~~~~~    ~~~~~~~~~
                                                             |-3-|
  +H             +E  E E   E   +H      +E  E E E   +H      E S S S E E
|----------------------------|-------------------|----------------------|
|----------------------------|-------------------|----------------------|
|----------------------------|-------------------|----------------------|
|----------------------------|-----------------6-|-(6)-----7-6h7p6------|
|--------------------4-6---7-|-(7)-----(7)-7-9---|-----------------9-7--|
|-(4)------------(4)---------|-------------------|----------------------|
|
|                               ~~~~~~~~~~~    ~~~~~~~~~
|                                                            |-3-|
|  S  S E E S Q.         S E   +H      +E  E E E   +H      E S S S E E
|----------------------------|-------------------|----------------------|
|----------------------------|-------------------|----------------------|
|----------------------------|-------------------|----------------------|
|--6s=4---4-4s6--------------|---------------1-2-|-(2)-----4-2h4p2-1----|
|-------7------------------4-|-(4)-----(4)-4-----|-------------------4--|
|----------------------------|-------------------|----------------------|
|
| +H..                     E   +H..            E   +H..              E
|----------------------------|-------------------|----------------------|
|----------------------------|-------------------|----------------------|
|--------------------------6-|-(6)-------------4-|-(4)------------------|
|-(6)----------------------6-|-(6)-------------4-|-(4)---------------4--|
|-(6)----------------------4-|-(4)-------------2-|-(2)---------------4--|
|-(4)------------------------|-------------------|-------------------2--|


                  G#5                 C#5
   ~~~~~~~~~~~         ~~~~~~~~~~~
   H      +E  E E E   +H      +E  E E E
|-------------------|-------------------|
|-------------------|-------------------|
|-------------------|-------------------|
|-------------------|-------------------|
|---------------7-6-|-(6)-----(6)-4-6-7-|
|--9------(9)-9-----|-------------------|
|
|  ~~~~                ~~~~~~~~~~~
|  H      +E  E E E   +H      +E  E E E
|-------------------|-------------------|
|-------------------|-------------------|
|-------------------|-------------------|
|-------------------|-------------------|
|-------------------|---------------2-4-|
|--2------(2)-2-5-4-|-(4)-----(4)-4-----|
|
| +H..            E   +H..            E
|-------------------|-------------------|
|-------------------|-------------------|
|-------------------|-----------------6-|
|-(4)-------------6-|-(6)-------------6-|
|-(4)-------------6-|-(6)-------------4-|
|-(2)-------------4-|-(4)---------------|


                  B5                     F#5
   ~~~~~~~~~~~    ~~~~~~~~~
                                 |-3-|
  +H      +E  E E E   +Q.    E E S S S E E
|-------------------|-----------------------|
|-------------------|-----------------------|
|-------------------|-----------------------|
|-----------------6-|-(6)----6-7-6h7p6------|
|-(7)-----(7)-7-9---|------------------9-7--|
|-------------------|-----------------------|
|
|  ~~~~~~~~~~~    ~~~~~~~~~
|                                |-3-|
| +H      +E  E E E   +Q.    E E S S S E E
|-------------------|-----------------------|
|-------------------|-----------------------|
|-------------------|-----------------------|
|---------------1-2-|-(2)----2-4-2h4p2-1----|
|-(4)-----(4)-4-----|--------------------4--|
|-------------------|-----------------------|
|
| +H..            E   +H..               E
|-------------------|-----------------------|
|-------------------|-----------------------|
|-(6)-------------4-|-(4)-------------------|
|-(6)-------------4-|-(4)----------------4--|
|-(4)-------------2-|-(2)----------------4--|
|-------------------|--------------------2--|


                  G#5                 C#5
   ~~~~~~~~~~~         ~~~~~~~~~~~
   H      +E  E E E   +H      +E  E E E
|-------------------|-------------------|
|-------------------|-------------------|
|-------------------|-------------------|
|-------------------|-------------------|
|---------------7-6-|-(6)-----(6)-4-6-7-|
|--9------(9)-9-----|-------------------|
|
|  ~~~~                ~~~~~~~~~~~
|  H      +E  E E E   +H      +E  E E E
|-------------------|-------------------|
|-------------------|-------------------|
|-------------------|-------------------|
|-------------------|-------------------|
|-------------------|---------------2-4-|
|--2------(2)-2-5-4-|-(4)-----(4)-4-----|
|
| +H..            E   +H..            E
|-------------------|-------------------|
|-------------------|-------------------|
|-------------------|-----------------6-|
|-(4)-------------6-|-(6)-------------6-|
|-(4)-------------6-|-(6)-------------4-|
|-(2)-------------4-|-(4)---------------|


                  B5                             F#5
   ~~~~~~~~~~~    ~~~~~~~~~
                                         |-3-|
  +H      +E  E E E   +Q.     E       E  S S S E E
|-------------------|-------------------------------|
|-------------------|-------------------------------|
|-------------------|-------------------------------|
|-----------------6-|-(6)-----6-------7--6h7p6------|
|-(7)-----(7)-7-9---|--------------------------9-7--|
|-------------------|-------------------------------|
|
|  ~~~~~~~~~~~    ~~~~~~~~~           ~~~~
| +H      +E  E E E   +Q.     E      +H
|-------------------|--------19b21==(19)------------|
|-------------------|-------------------------------|
|-------------------|-------------------------------|
|---------------1-2-|-(2)---------------------------|
|-(4)-----(4)-4-----|-------------------------------|
|-------------------|-------------------------------|
|
| +H..            E   +H..                       E
|-------------------|-------------------------------|
|-------------------|-------------------------------|
|-(6)-------------4-|-(4)---------------------------|
|-(6)-------------4-|-(4)------------------------4--|
|-(4)-------------2-|-(2)------------------------4--|
|-------------------|----------------------------2--|


                             G#5                                                                  C#5
    ~~~~~~~~~~~~~~~                   ~~~~~~~~~~~~~~~~~~~~~~~~~~~~~~~~~~~~~~~~~
    H          +E   E  E       E     +H                                    +E         E       E    E
|---------------------------------|------------------------------------------------------------------|
|---------------------------------|------------------------------------------------------------------|
|---------------------------------|----------------------------------------------------------------6-|
|---------------------------------|----------------------------------------------------------------6-|
|----------------------7-------6--|--(6)-----------------------------------(6)--------4-------6----4-|
|---9----------(9)--9-------------|------------------------------------------------------------------|
|
|   ~~~~~                                                                                          ~~~
|                                          |------------------3------------------|
|  +Q     E  E  E   E  E      +E     +E    E      +E    E      +E    E          +E    E      +E    E
|-(19)r--19-17-16-----------------|-------19-----(19)--19-----(19)--19---------(19)------------------|
|------------------19-19b21==(19)-|-(19)r-19b21==(19)r-19b21==(19)r-19b21======(19)r-19b21==(19)r-17-|
|---------------------------------|------------------------------------------------------------------|
|---------------------------------|------------------------------------------------------------------|
|---------------------------------|------------------------------------------------------------------|
|---------------------------------|------------------------------------------------------------------|
|
|  +H..                        E     +H                                    +E         E       E    E
|---------------------------------|------------------------------------------------------------------|
|---------------------------------|------------------------------------------------------------------|
|---------------------------------|------------------------------------------------------------------|
|--(4)-------------------------6--|--(6)-----------------------------------(6)-----------------------|
|--(4)-------------------------6--|--(6)-----------------------------------(6)--------4-------6----7-|
|--(2)-------------------------4--|--(4)-----------------------------------(4)-----------------------|


                      D.S.S. al Dbl. Coda
       PM----|
   +E  E E E E E E E     E   E E E E E E E
|--------------------|---------------------||
|--------------------|---------------------||
|--(6)---------6-6-6-|---6---6-6-6-6-6-6-9-||
|--(6)-6-6-6-6-6-6-6-|---6---6-6-6-6-6-6-9-||
|--(4)-4-4-4-4-4-4-4-|---4---4-4-4-4-4-4-7-||
|--------------------|---------------------||
|
|~~~~~~~~~~~~~~~~~~~~~~~~~~~~
|  +W                   +H..             E
|--------------------|---------------------||
|-(17)---------------|-(17)----------------||
|--------------------|---------------------||
|--------------------|---------------------||
|--------------------|---------------------||
|--------------------|---------------------||
|
|   ~~~~~~~~~~~~~~~~~~~~~~~~~
|  +W                   +H..             E
|--------------------|---------------------||
|--------------------|---------------------||
|--------------------|---------------------||
|--------------------|---------------------||
|--(7)---------------|--(7)----------------||
|--------------------|---------------------||


 3rd Chorus (continued)
  &&
  B5            E5                  E5/Eb              C#5
                        PM  PM    PM
  E E E E E E E E   +E  E E E E E E E   +E  E H    +E  E
|-----------------|-------------------|------------------|
|-----------------|-------------------|------------------|
|-4-4-4-4-4-4-4-9-|-(9)---9---9-9---9-|-(9)------------6-|
|-4-4-4-4-4-4-4-9-|-(9)---9---9-9---9-|-(9)---9----(9)-6-|
|-2-2-2-2-2-2-2-7-|-(7)-7-7-7-7-7-7-6-|-(6)-6----------4-|
|-----------------|-------------------|------------------|


                  G#5                C#5                 G#5                A5
      PM  PM                       PM        PM  PM                       PM
  +E  E E E E E E E   +E  E Q  Q   E E   +E  E E E E E E E   +E  E Q  Q   E E
|-------------------|-------4--4\------|-------------------|-------4--4\-------|
|-------------------|-------4--4\------|-------------------|-------4--4\-------|
|-(6)---6---6-6-----|----------------6-|-(6)---6---6-6-----|----------------2--|
|-(6)---6---6-6-x-6-|-(6)-6----------6-|-(6)---6---6-6-x-6-|-(6)-6----------2--|
|-(4)-4-4-4-----x-6-|-(6)-6----------4-|-(4)-4-4-4-----x-6-|-(6)-6----------0--|
|-----------------4-|-(4)-4--------4---|-----------------4-|-(4)-4--------4----|


                 Chorus/Solo
             B5                     E5
  +H..       E    +E  E E  E E  E E E
|--------------||---------------------|
|--------------||---------------------|
|-(2)--------4-||-(4)-4-4--4-4--4-4-9-|
|-(2)--------4-||-(4)-4-4--4-4--4-4-9-|
|-(0)--------2-||-(2)-2-2--2-2--2-2-7-|
|--------------||---------------------|
|
| Gtr II
|                                   ~~~
|  W               Q.      E E  E E E
|--------------||---------------------|
|--------------||---------------------|
|--------------||-------------------9-|
|--------------||------------9-11-9---|
|--------------||---------11----------|
|--------------||---------------------|


                   E5/D#                         C#5
  +H..              E        +E  E H         +E  E
|-------------------------|-------------------------|
|-------------------------|-------------------------|
|-(9)---------------9-----|--(9)-----------------6--|
|-(9)---------------9-----|--(9)---9---------(9)-6--|
|-(7)---------------6-----|--(6)-6---------------4--|
|-------------------------|-------------------------|
|
|~~~~~~~~~~~~~      ~~~~~~~~~~~~~~~~~~~~~~~~
| +H      +E   E E  E        +H        +Q.       E
|-------------------------|----------------------9--|
|------------------12b14==|=(12)------(12)r---------|
|-(9)-----(9)----9--------|-------------------------|
|-------------11----------|-------------------------|
|-------------------------|-------------------------|
|-------------------------|-------------------------|


                                     G#5                                C#5
  +H..                               E        +H..                      E
|-------------------------------------------|-----------------------------|
|-------------------------------------------|-----------------------------|
|-(6)---------------------------------------|---------------------------6-|
|-(6)--------------------------------6------|-(6)-----------------------6-|
|-(4)--------------------------------6------|-(6)-----------------------4-|
|------------------------------------4------|-(4)-------------------------|
|
|      |-3--|    |-3--|    |-3--|    |-3--|
|  E   S  S S  E S  S S  E S  S S  E S  S S    S   S  E S +S   E E  E Q
|-12---9h12p9-------------------------------|-----------------------------|
|-------------12-9h12p9---------------------|-----------------------------|
|-----------------------11-9h11p9-----------|-------------------------9---|
|---------------------------------11-9h11p9-|--------------------9--------|
|-------------------------------------------|-11p==9----9-(9)s11---11-----|
|-------------------------------------------|--------12-------------------|


                     G#5                       A5
  +H..               E   +H..                   E
|----------------------|--------------------------|
|----------------------|--------------------------|
|-(6)------------------|------------------------2-|
|-(6)----------------6-|-(6)--------------------2-|
|-(4)----------------6-|-(6)--------------------0-|
|--------------------4-|-(4)----------------------|
|
|  ~~~~~~~~~~~                    ~~~~~~~~~~~~
| +H      +E   E  E  E    E      +H      +Q     E
|----------------------|-19b21==(19)----(19)r--17-|
|-------------/5s14\-x-|--------------------------|
|-(9)-----(9)--------x-|--------------------------|
|----------------------|--------------------------|
|----------------------|--------------------------|
|----------------------|--------------------------|


                                              B5                                                         E5
  +H..                                         E             +H..                                        E
|----------------------------------------------------------|-----------------------------------------------|
|----------------------------------------------------------|-----------------------------------------------|
|-(2)------------------------------------------4-----------|-(4)-----------------------------------------9-|
|-(2)------------------------------------------4-----------|-(4)-----------------------------------------9-|
|-(0)------------------------------------------2-----------|-(2)-----------------------------------------7-|
|----------------------------------------------------------|-----------------------------------------------|
|
|                                                                                           ~~~~~~~
|       |--3--|
|  E    S  S  S  S  S  S  S  S  S  E     E     S      +S      E     +S   E.    S      +S    E  +E   +Q
|-19---17h19p17-16h17p16----16----------------19-----(19)--|-19----(19)-19----19-----(19)------------------|
|------------------------19----19-19b21-19b21-19b21==(19)r-|-19b21-(19)-19b21-19b21==(19)r-17-(17)-(17)\---|
|----------------------------------------------------------|-----------------------------------------------|
|----------------------------------------------------------|-----------------------------------------------|
|----------------------------------------------------------|-----------------------------------------------|
|----------------------------------------------------------|-----------------------------------------------|


                                 E5/Eb                               C#5
  +H..                           E    +E    E  H                 +E  E
|----------------------------------|-----------------------------------|
|----------------------------------|-----------------------------------|
|-(9)----------------------------9-|--(9)----------------------------6-|
|-(9)----------------------------9-|--(9)------9-----------------(9)-6-|
|-(7)----------------------------6-|--(6)---6------------------------4-|
|----------------------------------|-----------------------------------|
|
|                             ~~~~~~~~~~~~~                       ~~~~
|  E    E  E  E  E  +E       +Q       +E    E  E  E  E  +E       +Q
|----------------------------------|-----------------------------------|
|----------------------------------|-----------------------------------|
|------------13-14-(14)b16==(14)---|-(14)r-------13-14-(14)b16==(14)---|
|------14-16-----------------------|-------14-16-----------------------|
|----------------------------------|-----------------------------------|
|----------------------------------|-----------------------------------|


                                G#5                                     C#5
   +H..                         E    +H..                                 E
|---------------------------------|-------------------------------------------|
|---------------------------------|-------------------------------------------|
|--(6)----------------------------|---------------------------------------6---|
|--(6)--------------------------6-|--(6)----------------------------------6---|
|--(4)--------------------------6-|--(6)----------------------------------4---|
|-------------------------------4-|--(4)--------------------------------------|
|
|                            ~~~~~~~~~~~~~                        ~~~~~~~~~~~~
|  +E    E  E  E  E  E      +Q       +Q.     S  S  S  S  S  S  S  S      +E
|---------------------------------|-------------------------------------------|
|---------------------------------|---------14h17p14----14--------------------|
|-(14)r-------13-14-16b18==(16)---|-(16)r------------16----16p13--------------|
|-------14-16---------------------|------------------------------16b18==(16)r-|
|---------------------------------|-------------------------------------------|
|---------------------------------|-------------------------------------------|


                                                    G#5                                                  A5
  +H..                                               E      +H..                                         E
|---------------------------------------------------------|-------------------------------------------------|
|---------------------------------------------------------|-------------------------------------------------|
|-(6)-----------------------------------------------------|----------------------------------------------2--|
|-(6)------------------------------------------------6----|-(6)------------------------------------------2--|
|-(4)------------------------------------------------6----|-(6)------------------------------------------0--|
|----------------------------------------------------4----|-(4)---------------------------------------------|
|
|                       ~~~~~~~~~~                                                                    ~~~
|                                                            |----3-----|
|  S     S  S     S  S  S     +E   S  S  S  S  S  S  S  S    E     +E   E  S  S  S  S  S  S  S  S  S  E.
|---------------------------------------------------------|-------------------------------------------------|
|---------------------------------------------------------|-------------------------------------------------|
|-------16-------16-18------------------------------------|-------------------------------------------------|
|-16b18----16b18-------16b18r(16)-14----14----14----------|---------------------------------------14-14-----|
|------------------------------------16----16----16-14----|---------------------------14----14s16-----------|
|------------------------------------------------------16-|-14b16r(14)-12-14p12-14s16----16-----------------|


                     B5
   +H..               E    +H        +E  E.  E.
|-----------------------|-----------------------||
|-----------------------|-----------------------||
|--(2)----------------4-|--(4)-------(4)-9------||
|--(2)----------------4-|--(4)-------(4)----11--||
|--(0)----------------2-|--(2)-------(2)--------||
|-----------------------|-----------------------||
|
|   ~~~~~
|  +Q     E E  E E E  E    +E  E E E  E  E.  E.
|-----------0--0-0-0--0-|--(0)-0-0-0--0--0------||
|-----------9-10-9-9-10-|-(10)-9-9-7--7--9------||
|-----------------------|-----------------------||
|-(14)---11-------------|--------------------7--||
|-----------------------|-----------------------||
|-----------------------|-----------------------||


 Outro/Harmony
  N.C.
  E.  E. E  E.  E. E    E.  E. E  E  E.  E.   E.  E. E  E.  E. E
|--------------------|----------------------|---------------------|
|--------------------|----------------------|---------------------|
|-9------------------|--------------/9------|-9-------------------|
|----11--9-11--11--9-|-11--11--9--------11--|----11--9-11--11--9--|
|--------------------|-----------12---------|---------------------|
|--------------------|----------------------|---------------------|
|
| E.  E. E  E.  E. E    E.  E. E  E  E.  E.   E.  E. E  E.  E. E
|--------------------|----------------------|---------------------|
|--------------------|----------------------|---------------------|
|-6------------------|--------------/6------|-6-------------------|
|-----7--6--7---7--6-|--7---7--6---------7--|-----7--6--7---7--6--|
|--------------------|------------9---------|---------------------|
|--------------------|----------------------|---------------------|


   E.  E. E  E   E.  E.    E.   E.  E  E.   E.  E
|-----------------------|-------------------------|
|-----------------------|-------------------------|
|-----------------------|-------------------------|
|-11--11--9----/13------|-13--/14--13-14--/16--14-|
|-----------12------16--|-------------------------|
|-----------------------|-------------------------|
|
|  E.  E. E  E   E.  E.    E.   E.  E  E.   E.  E
|-----------------------|-------------------------|
|-----------------------|-------------------------|
|-----------------------|-------------------------|
|--7---7--6-----/9---7--|--9--/11---9-11--/13--11-|
|------------9----------|-------------------------|
|-----------------------|-------------------------|


   E.  E.  E  E.  E.  E    E.  E.  E  E.  E.  E
|-----------------------|-----------------------|
|-----------------------|----------------14-----|
|-----13-----13--14--13-|-14--16--14-16------16-|
|-16------16------------|-----------------------|
|-----------------------|-----------------------|
|-----------------------|-----------------------|
|
|  E.  E.  E  E.  E.  E    E.  E.  E  E.  E.  E
|-----------------------|-----------------------|
|-----------------------|-----------------------|
|----------------11-----|-11--13--11-13--14--13-|
|-13--14--13-14------14-|-----------------------|
|-----------------------|-----------------------|
|-----------------------|-----------------------|


                                                   E5
                                   ~~~~~~~~~~~~
   E.  E.  E  E.  E.  E    E      +H      +Q.      W          +W
|--------------------14-|-14b16==(14)----(14)r---|----------|--------*|
|-14--16--14-16--17-----|------------------------|----------|--------*|
|-----------------------|------------------------|----------|--------*|
|-----------------------|------------------------|-2--------|-(2)----*|
|-----------------------|------------------------|-2--------|-(2)----*|
|-----------------------|------------------------|-0--------|-(0)----*|
|
|                                  ~~~~~~~~~~~~
|  E.  E.  E  E.  E.  E    E      +H      +Q.      W          +W
|-----------------------|------------------------|----------|--------*|
|-----12-----12--14--16-|-16b17==(16)----(16)r---|----------|--------*|
|-14------14------------|------------------------|----------|--------*|
|-----------------------|------------------------|-2--------|-(2)----*|
|-----------------------|------------------------|-2--------|-(2)----*|
|-----------------------|------------------------|-0--------|-(0)----*|




--------------------------------------------------------------------------------


Duration Legend
---------------
W - whole; H - half; Q - quarter; E - 8th; S - 16th; T - 32nd; X - 64th; a - acciaccatura
+ - note tied to previous; . - note dotted; .. - note double dotted
Uncapitalized letters represent notes that are staccato (1/2 duration)
Irregular groupings are notated above the duration line
Duration letters will always appear directly above the note/fret number it represents the
duration for.  Duration letters with no fret number below them represent rests.  Multi-
bar rests are notated in the form Wxn, where n is the number of bars to rest for.  Low
melody durations appear below the staff

Tablature Legend
----------------
 h   - hammer-on
 p   - pull-off
 b   - bend
 pb  - pre-bend
 r   - bend release (if no number after the r, then release immediately)
 /\  - slide into or out of (from/to "nowhere")
 s   - legato slide
 S   - shift slide
 - natural harmonic
[n]  - artificial harmonic
n(n) - tapped harmonic
 ~   - vibrato
 tr  - trill
 T   - tap
 TP  - trem. picking
 PM  - palm muting
\n/  - tremolo bar dip; n = amount to dip
 \n  - tremolo bar down
 n/  - tremolo bar up
/n\  - tremolo bar inverted dip
 =   - hold bend; also acts as connecting device for hammers/pulls
  - volume swell (louder/softer)
 x   - on rhythm slash represents muted slash
 o   - on rhythm slash represents single note slash

Misc Legend
-----------
 |  - bar
||  - double bar
||o - repeat start
o|| - repeat end
*|  - double bar (ending)
 :  - bar (freetime)
 $  - Segno
 &  - Coda
Tempo markers -  = BPM(8/16=s8/s16), where s8 = swing 8ths, s16 = swing 16ths
Comments