Thin Lizzy - Waiting For An Alibi Chords & Tabs

 

Waiting For An Alibi Chords & Tabs

Thin Lizzy Chords & Tabs

Version: 2 Type: Bass Tab 0 ratings
1 star 2 stars 3 stars 4 stars 5 stars
comments

Waiting For An Alibi Bass Tab

Waiting For an Alibi - By Thin Lizzy
=====================================
Tabbed out by Dara Canny (hellcourt@hotmail.com)
Hey all , this is my first tab that I'm sending into the archive.
Mail me with corrections [ if any :) ].

- Standard Tuning 

	RIFF 1 			RIFF 2
G |-----------------------|--------------------------------------|
D |-----------------------|--------------------------------------|
A |--2-4-----------2------|---4-----2-4--------------------------|
E |------0-0-0-0-4--------|-----0-4-----0-4-4--------------------|

	PRE-CHORUS
G |--------------------------------------------------------------|
D |--------------------------------------------------------------|
A |--4-4-4-4-4-----------4-4-4-4-4---------0-0-2-2---------------|
E |------------4-4-4-4-4-----------2-2-4-4-----------------------|
[ Tab from: http://www.guitartabs.cc/tabs/t/thin_lizzy/waiting_for_an_alibi_btab_ver_2.html ]
G |--------------------------------------------------------------|
D |--------------------------------------------------------------|
A |--4-4-4-4-4-----------0-0-0-0-0-2-2-2-2-2-2-------------------|
E |------------4-4-4-4-4-----------------------------------------|

	CHORUS
G |--------------------------------------------------------------|
D |--------------------------------------------------------------|
A |-7-7-7-7-7-7-7-7-7-7-7-5-4-------------------0-2--------------|
E |---------------------------5-4-4-4-4-4-4-4-4------------------|

	Ending Solo
G |--------------------------------------------------------------|
D |--------------------------------------------------------------|
A |-7-7-11-11-12-12-14-14-7-7-11-11-12-12-14-----------------0-2-|
E |------------------------------------------4-4-4-4-4-4-4-4-----|

	Ending 
G |--------------------------------------------------------------|
D |--------------------------------------------------------------|
A |----4---2---0-------------------------------------------------|
E |----------------4---0-0-0-0-0---------------------------------|

Riff 1 x 6 
Riff 2 x 2 
Pre-Chorus
Chorus x 2 
Riff 1 x 4
Riff 2 x 2
Pre-Chorus
Chorus x 2 
Riff 2 x 2
Pre-Chorus
Chorus x 2
Riff 2 x 2
Pre-Chorus
Chorus x 4
Ending Solo
Chorus x 3 
Riff 1 x 3
Ending 





Comments