Thin Lizzy - Still In Love With You Live Chords & Tabs

 

Still In Love With You Live Chords & Tabs

Thin Lizzy Chords & Tabs

Version: 1 Type: Bass Tab 0 ratings
1 star 2 stars 3 stars 4 stars 5 stars
comments

Still In Love With You Live Bass Tab

   
Still In Love With You (live)
THIN LIZZY

Tabbed by Sam Hodge, Sense:

Tom James       : Lead Guitar
Sam Hodge       : Bass Guitar (rocks!) , Vocals
John MacQuarrie : Drums
Max Langley     : Rhythm Guitar

Live and Dangerous Album - THIN LIZZY ROCK!!

introduction
G|-----------------------6--8--11--13-----------------------------------------|
D|--------------6--8--9-------------------------------------------------------|
A|--------7--9--------------------------------------------------4-6-----------|
E|--4/-0-------------------------------44/--4/--4---4/----------------------|

verse 1
G|----------------------------------------------------------------------------|
D|-----------4-4--------------------------------------------------------------|
A|-------4-4------------2---2-1-----------------------------------------------|
E|--4-4-----------------------------------------------------------------------|

G|-----------4--1-------------------------------------------------------------|
D|----------------4-4---------------------------------------------------------|
A|-------4-4------------2---2-1-----------------------------------------------|
E|--4-4-----------------------------------------------------------------------|

G|----------------4-----------------------------------------------------------|
D|------------4---------------------------------------------------------------|
A|-------4-4------------2---2-1-----------------------------------------------|
E|--4-4-----------------------------------------------------------------------|

G|----------------------------------------------------------------------------|
D|------------4-4--------1--4-------------------------------------------------|
A|-------4-4-----------2------------------------------------------------------|
E|--4-4------------------------4-(let ring)-----------------------------------|


chorus
G|----------------------------------------------------------------------------|
D|----------------------------------------------------------------------------|
A|---------4-6----------6--4--------------------------------------------------|
E|--4-4/---------4-4/---------------------------------------------------------|

verse 2
G|----------------------------------------------------------------------------|
D|-----------4-4--------------------------------------------------------------|
A|-------4-4-----------2---2-1------------------------------------------------|
E|--4-4-----------------------------------------------------------------------|

G|------------4-1---------------------------------------------------------------|
D|----------------4-4-----------------------------------------------------------|
A|-------4-4-----------2---1-2--------------------------------------------------|
E|--4-4-------------------------------------------------------------------------|

G|------------4--1--------------------------------------------------------------|
D|-----------------4-4----------------------------------------------------------|
A|-------4-4-----------2---2-1--------------------------------------------------|
E|--4-4-------------------------------------------------------------------------|

G|------------------------------------------------------------------------------|
D|-----------4-4---------1--4---------------------------------------------------|
A|-------4-4----------2---------------------------------------------------------|
E|--4-4------------------------4(let ring)-------------------------------------|

chorus
G|------------------------------------------------------------------------------|
D|------------------------------------------------------------------------------|
A|--------4-6-----4---4-6-------------------------------------------------------|
E|--4-4/-------4----------------------------------------------------------------|

bass solo 1 (during guitar solo 1)
part 1
G|------------------------------------------------------------------------------|
D|------------------------------------------------------------------------------|
A|-------4-6-------4-6----------------------------------------------------------|
E|--4-4-------4-4---------------------------------------------------------------|

G|------------------------------------------------------------------------------|
D|------------------------------------------------------------------------------|
A|--4-4---4-6----4-4---4-6------------------------------------------------------|
E|------------------------------------------------------------------------------|

G|------------------------------------------------------------------------------|
D|------------------------------------------------------------------------------|
A|-------4-6-------4-6----------------------------------------------------------|
E|--2-2-------2-2---------------------------------------------------------------|

G|------------------------------------------------------------------------------|
D|------------------------------------------------------------------------------|
A|--2-2---4-6---2-(let ring)----------------------------------------------------|
E|------------------------------------------------------------------------------|

part 2
G|------------------------------------------------------------------------------|
D|-------6--4---------6--4------------------------------------------------------|
A|------------6------------6----------------------------------------------------|
E|--4-4----------4-4------------------------------------------------------------|

G|------------------------------------------------------------------------------|
D|-------6--4------------6--4---------------------------------------------------|
A|--4-4-------6-4---4-4-------6-------------------------------------------------|
E|------------------------------------------------------------------------------|

G|------------------------------------------------------------------------------|
D|-------6--4-------------6--4-------------6-4----------------------------------|
A|------------6-4-------------6-4---2-2--------6-4---2(let ring)----------------|
E|--2-2------------2-2----------------------------------------------------------|

part 3
G|-------------------------6--4-------------------------------------------------|
D|------------------4----------6--4---------------------------------------------|
A|---------2--4--6-----4--------------6-----------------------------------------|
E|--4--4-4----------------------------------------------------------------------|

G|------------------------------------------------------------------------------|
D|------------------4------9--6--4----------------------------------------------|
A|---------2--4--6-----6------------6--4----------------------------------------|
E|--2--2-2----------------------------------------------------------------------|

G|-------------------------6--4-------------------------------------------------|
D|------------------4------------6--4-------------------------------------------|
A|---------2--4--6-----6---------------6----------------------------------------|
E|--4--4-4----------------------------------------------------------------------|

G|------------------------------------------------------------------------------|
D|------------------------9--4--------------------------------------------------|
A|---------2--4--6--7--9--------2--------4-6------4-6---------------------------|
E|--2--2-2--------------------------4-4/-----4-4/-------------------------------|

verse 3
G|-----------4--1-----------------------------------------------------------------|
D|----------------4-4-------------------------------------------------------------|
A|------4-4------------2--2-1-----------------------------------------------------|
E|--4-4---------------------------------------------------------------------------|

G|--------------------------------------------------------------------------------|
D|-----------4-4------------------------------------------------------------------|
A|------4-4-----------2--2-1------------------------------------------------------|
E|--4-4---------------------------------------------------------------------------|
[ Tab from: http://www.guitartabs.cc/tabs/t/thin_lizzy/still_in_love_with_you_live_btab.html ]
G|--------------------------------------------------------------------------------|
D|-----------4-4------------------------------------------------------------------|
A|------4-4-----------2--2-1------------------------------------------------------|
E|--4-4---------------------------------------------------------------------------|

G|--------------------------------------------------------------------------------|
D|-----------4-4--------1--4------------------------------------------------------|
A|------4-4----------2------------------------------------------------------------|
E|--4-4-----------------------4(let ring)-----------------------------------------|

chorus
G|--------------------------------------------------------------------------------|
D|--------------------------------------------------------------------------------|
A|--------4-6----4---4-6----------------------------------------------------------|
E|--4-4/------4/------------------------------------------------------------------|


bass solo 2 (during guitar solo 2)
part 1
G|--------------------------------------------------------------------------------|
D|------------------6-4-----------------------------------------------------------|
A|--------4-6-------------6-------------------------------------------------------|
E|--4-4--------4-4----------------------------------------------------------------|

G|--------------------------------------------------------------------------------|
D|--------------------6-----------------------------------------------------------|
A|--4-4---4-6--4-4-------4--------------------------------------------------------|
E|--------------------------------------------------------------------------------|

part 2
G|--------------------------------------------------------------------------------|
D|--------------------------------------------------------------------------------|
A|--6--6/--2-6--7-7--7--9--7-----------------------------------------------------|
E|--------------------------------------------------------------------------------|

G|--------------------------------------------------------------------------------|
D|--------------------------------------------------------------------------------|
A|--6-6--6/--2-6-6--7-7--7-7-9--7-------------------------------------------------|
E|--------------------------------------------------------------------------------|

G|--------------------------------------------------------------------------------|
D|--------------------------------------------------------------------------------|
A|--6-6--6/--2-6--7-7--7-7--7-7--7---4-------------------------------------------|
E|--------------------------------------------------------------------------------|

part 3
G|--------------------------------------------------------------------------------|
D|--------------------------------------------------------------------------------|
A|--2-2--2-2-----7-7--7-7---------------------------------------------------------|
E|--------------------------------------------------------------------------------|


G|--------------------------------------------------------------------------------|
D|--------------------------------------------------------------------------------|
A|--2-2--2-2-----7-7--7-7-----7/--------------------------------------------------|
E|--------------------------------------------------------------------------------|

G|--------------------------------------------------------------------------------|
D|--------------------------------------------------------------------------------|
A|--2-2--2-2----7-7--7-7-------2-2------------------------------------------------|
E|------------------------4-4-----------------------------------------------------|

G|--------------------------------------------------------------------------------|
D|--------------------------------------------------------------------------------|
A|--2-2--2-2----7-7--7-7/---------------------------------------------------------|
E|--------------------------------------------------------------------------------|

G|---------------------------------------------------------------------------------|
D|---------------------------------------------------------------------------------|
A|--2-2--2-2---7-7--7-7------------------------------------------------------------|
E|---------------------------------------------------------------------------------|

G|--------------------------------------------------------------------------------|
D|--9-9-9--9-9--------------------------------------------------------------------|
A|--------------7/--2--2-2----7-7--7-7--------------------------------------------|
E|--------------------------------------------------------------------------------|

G|--------------------------------------------------------------------------------|
D|--------------------------------------------------------------------------------|
A|--2-2--2-2----7-7--7-7/---------------------------------------------------------|
E|--------------------------------------------------------------------------------|

G|--------------------------------------------------------------------------------|
D|--------------------------------------------------------------------------------|
A|--2-2--2-2----7-7--7-7----------------------------------------------------------|
E|--------------------------------------------------------------------------------|

G|--------------------------------------------------------------------------------|
D|--------------------------------------------------------------------------------|
A|--2-2--2-2----7-7---------------------------------------------------------------|
E|------------------4-4-----------------------------------------------------------|

G|--------------------------------------------------------------------------------|
D|---------------9----------------------------------------------------------------|
A|--2-2--2-2--------7-7--7-7------------------------------------------------------|
E|--------------------------------------------------------------------------------|

part 3
G|--------------------------------------------------------------------------------|
D|--------------------------------------------------------------------------------|
A|--2-2-2--2-2---6-7-9--2---------------------------------------------------------|
E|--------------------------------------------------------------------------------|

G|--------------------------------------------------------------------------------|
D|--------------------------------------------------------------------------------|
A|--7-7----19-19/-----------------------------------------------------------------|
E|--------------------------------------------------------------------------------|

G|--------------------------------------------------------------------------------|
D|--------------------------------------------------------------------------------|
A|--2-2-2--2-2---6-7-9--2---------------------------------------------------------|
E|--------------------------------------------------------------------------------|

G|--------------------------------------------------------------------------------|
D|--------------------------------------------------------------------------------|
A|--7-7----19-19/-----------------------------------------------------------------|
E|--------------------------------------------------------------------------------|
G|--------------------------------------------------------------------------------|
D|--------------------------------------------------------------------------------|
A|--2-2-2--2-2---6-7-9--2---------------------------------------------------------|
E|--------------------------------------------------------------------------------|

G|--------------------------------------------------------------------------------|
D|--------------------------------------------------------------------------------|
A|--7-7----19-19/-----------------------------------------------------------------|
E|--------------------------------------------------------------------------------|

end
G|-------------------------11--13-------------------------------------------------|
D|--------------------------------------------------------------------------------|
A|--2--4--6--7--9--11--13---------------------------------------------------------|
E|--------------------------------------------------------------------------------|


| /  slide up
| \  slide down
| h  hammer-on
| p  pull-off
| ~  vibrato
| +  harmonic
| x  mute note

It's so accurate it took me two hours to decipher it so don't complain!! HAVE FUN! 
in the solos!!
THIN LIZZY ROCK!
Comments