Thin Lizzy - Still In Love With You (l&d) Chords & Tabs

 

Still In Love With You (l&d) Chords & Tabs

Thin Lizzy Chords & Tabs

Version: 1 Type: Tab 0 ratings
1 star 2 stars 3 stars 4 stars 5 stars
comments

Still In Love With You (l&d) Tab

   
#----------------------------------PLEASE NOTE---------------------------------#
#This file is the author's own work and represents their interpretation of the #
#song. You may only use this file for private study, scholarship, or research. #
#------------------------------------------------------------------------------##

                          STILL IN LOVE WITH YOU (Live)
                            As recorded by Thin Lizzy
                    (From the 1972 Album LIVE AND DANGEROUS)

Words and Music by Phil Lynott

Gtr I (E A D G B E) - 'Solo guitar'
Gtr II (E A D G B E) - 'Clean 1'
Gtr III (E A D G B E) - 'quiet distortion'
Gtr IV (E A D G B E) - 'clean 2'

 Intro
  Q=60
  Am                     F
 4/4
  Gtr I
   ~~~                    ~~
   H.       S  S  S  S    W
|----------------------|-----------|
|----------------------|-----------|
|-17-------17h19p17h19p|=17--------|
|----------------------|-----------|
|----------------------|-----------|
|----------------------|-----------|
|
| Gtr II
|  W                      W
|--5-------------------|-^1--------|
|--5-------------------|-^1--------|
|--5-------------------|-^2--------|
|--7-------------------|-^3--------|
|--7-------------------|-^3--------|
|--5-------------------|-^1--------|


                                      <
   E  E  E  E  T  T  T  T  E  E  E    H     +Q    +Q
|----------------------------------|--------------------||
|-------17-------------------------|--------------------||
|-17-19----19-17h19p17h19s16-------|--------------------||
|----------------------------19-17-|-17----(17)--(17)\--||
|----------------------------------|--------------------||
|----------------------------------|--------------------||
|
|                                     ~~
|  E  E  E  E  T  T  T  T  E  E  E    W
|----------------------------------|--------------------||
|----------------------------------|--------------------||
|--5--7s=9--7--5h=7p=5h=7s=4-------|--------------------||
|----------------------------/7--5-|-/7-----------------||
|----------------------------------|--------------------||
|----------------------------------|--------------------||


  Q=72
  Am7
   ~~~
   W                    +H           +E   E +S  S E
|--------------------|--------------------------------|
|--------------------|--------------------------------|
|-12-----------------|-(12)---------(12)\-5-(5)s7s5---|
|--------------------|--------------------------------|
|--------------------|--------------------------------|
|--------------------|--------------------------------|
|
|  Q.   E +Q   S S E     E. S S S E  +E   E  S  S S S
|-^0-----------0-----|--------------------5---------3-|
|-^1-------------1---|------------3--(3)-----3s=1-1---|
|-^0---------------0-|------0-------------------------|
|-^2-----------------|---2----2s4---------------------|
|-^0----0-(0)--------|--------------------------------|
|--------------------|--------------------------------|


  ~~
  W               +E   E   Q      H
|---------------|--------------------------------||
|---------------|--------------------------------||
|---------------|--------------------------------||
|-7-------------|-(7)/---------------------------||
|---------------|--------------------------------||
|---------------|--------------------------------||
|
| Q.   E +H        E.    S S S E +S  E. S S S S
|------0-(0)----|----------3s5-5-(5)-5--5s3------||
|------1-(1)----|----------1s3-3-(3)-3------1----||
|------0-(0)----|--------0--------------------0--||
|------2-(2)----|--------------------------------||
|-0----0-(0)----|--0-----------------------------||
|---------------|--------------------------------||


 Verse
  Am7                 Dm7                 Dm7/G
  Gtr III
  W                   Q.   E +H           Q.   E +Q.      E
|-0-----------------|------1-(1)--------|------1-(1)------3---|
|-1-----------------|------1-(1)--------|------1-(1)----------|
|-0-----------------|------2-(2)--------|------2-(2)----------|
|-2-----------------|-0-----------------|---------------------|
|-0-----------------|-------------------|---------------------|
|-------------------|-------------------|-3-------------------|
|
| Q.   E +Q   +E. S   Q.   E +Q   S S E   Q.   E +Q   S S S S
|------0-(0)--(0)---|------1-(1)--1-----|------1-(1)--1-------|
|------1-(1)--(1)---|------1-(1)----1---|------1-(1)----1-----|
|-------------------|------2-(2)------2-|------2-(2)------2---|
|-----------------0-|-0-----------------|---------------------|
|-0-----------------|-------------------|---------------------|
|-------------------|-------------------|-3-----------------0-|


  Cmaj7                       Am7                 Dm7
  H.                S E   S   E  E E  E  +H       Q.   E +H
|-0-------------------------|-------------------|------1-(1)-------|
|-0-------------------------|------3s=1--(1)----|------1-(1)-------|
|-0-------------------------|------0-(0)-(0)----|------2-(2)-------|
|-2-------------------------|----2--------------|-0----------------|
|-3-----------------2-2---0-|-0-----------------|------------------|
|---------------------------|-------------------|------------------|
|
| E  S S E E +S  E. E   S S   Q.      E  +H       Q.   E +Q   E. S
|-------------------0-------|---------0--(0)----|------1-(1)--1----|
|---------------------------|---------1--(1)----|------1-(1)-------|
|----------0-(0)-0------0-0-|---------0--(0)----|------2-(2)-----2-|
|------2--------------------|---------2--(2)----|-0----------------|
|-3--3---3------------------|-0-------0--(0)----|------------------|
|---------------------------|-------------------|------------------|


  Dm7/G
    E   E  E  E  +E   S  S  S  S  E
|-^13--12-10---------------10-------|
|-^10--------13-(13)-13-10----13-10-|
|-^10-------------------------------|
|-----------------------------------|
|-----------------------------------|
|-----------------------------------|
|
|   Q.        E  +Q         S  S  E
|-------------1--(1)--------1-------|
|-------------1--(1)-----------1----|
|-------------2--(2)--------------2-|
|-----------------------------------|
|-----------------------------------|
|---3-------------------------------|


  Cmaj7                             Am7
   H           S  S  S S S S  S S   E  E  E E +H
|-^7-----------7--8--7------------|----------------------|
|-^8-------------------8----------|------/3s1-(1)--------|
|-^9---------------------9-7------|----------------------|
|----------------------------10s9-|-7----/4s2-(2)--------|
|---------------------------------|----0-----------------|
|---------------------------------|----------------------|
|
|  E. S +E  E +S  E.     S S  S S   H.             +E. S
|------------------------0--------|----------------------|
|-----------------0--------0------|----------------------|
|-----------0-(0)-----------------|----------------------|
|-----2-(2)-----------------------|--------------------0-|
|--3--------------------------2-0-|-0--------------(0)---|
|---------------------------------|----------------------|


  Dm7                 Dm7/G                  Cmaj7
  W                    Q.   E +H              H.              E   S S
|-------------------|-^5----8-(8)----------|-^7-------------------5---|
|-------------------|-^6----6-(6)----------|-^8---------------5-----5-|
|-------------------|-^5-------------------|-^9-----------------------|
|-------------------|----------------------|--------------------------|
|-------------------|----------------------|--------------------------|
|-------------------|----------------------|--------------------------|
|
| Q.   E +Q   S S E    H      +E  E +S  E.    E  E E E +S  E. S S E
|------1-(1)--1-----|-------------1-(1)----|------------------3-0-0---|
|------1-(1)----1---|-------------------1--|---------------0----------|
|------2-(2)------2-|----------------------|---------0-(0)------------|
|-0-----------------|----------------------|-------2------------------|
|-------------------|----------------------|--3--3--------------------|
|-------------------|--3------(3)----------|--------------------------|


  Am7                   Dm7                      Dm7/G
  Q  S S E +H           Q.   E +H                  E   E  E  E  +H
|---------------------|------1-(1)-------------|-^13--12-10------------------|
|-8-------------------|------1-(1)-------------|-^10--------10-(10)----------|
|----5-7--------------|------2-(2)-------------|-^10-------------------------|
|--------7-(7)--------|-0----------------------|-----------------------------|
|---------------------|------------------------|-----------------------------|
|---------------------|------------------------|-----------------------------|
|
|                                  |-3-|
| Q  S S E +Q   +E. S   H      +E  S S S S S E     Q.        E  +Q   S S S S
|--------0-(0)--(0)---|------------1-3-1-1-----|-------------1--(1)--1-------|
|--------1-(1)--(1)---|------------------1-----|-------------1--(1)----1-----|
|----0---0-(0)--(0)---|--------------------2-2-|-------------2--(2)----------|
|------2-2-(2)--(2)-0-|-0------(0)-------------|-------------------------0---|
|-0------0-(0)--(0)---|------------------------|-----------------------------|
|---------------------|------------------------|---3-----------------------0-|


  Cmaj7  Fmaj7                     Am7
                                           |----3----|
   Q   E E +H       +Q   Q  H        Q    +E   E     E  S   E.  +S   S  E
|-^7-----0-(0)----|-(0)----------|-^12---(12)-12-----------------------15-|
|-^8-----1-(1)----|-(1)----------|-^13---(13)-------13--------------------|
|-^9-----2-(2)----|-(2)----------|-^12---(12)----------12-----------12----|
|--------3-(3)----|-(3)----------|-^14---(14)--------------14--(14)-------|
|-----------------|--------------|----------------------------------------|
|-----------------|--------------|----------------------------------------|
|
|  E E E E +H       +Q   Q  H        Q.           E    +Q        E      E
|--------1-(1)----|-(1)----------|---------------^0----(0)-------0--------|
|--------1-(1)----|-(1)----------|---------------^1----(1)----------------|
|------0-2-(2)----|-(2)----------|---------------^0----(0)--------------0-|
|----2---3-(3)----|-(3)----------|---------------^2----(2)----------------|
|--3-----3-(3)----|-(3)----------|---0------------------------------------|
|--------1-(1)----|-(1)----------|----------------------------------------|


                                                  Am7
                     |----3----|  |----3----|
  S  S  S  S  Q      E      E  E  E    E    E       W
|------------10-----10---------------------10---|-^-8------------------|
|---------10---------------10--------------10---|-^-8------------------|
|------12---------------------12------12--------|-^-9------------------|
|---12---------------------------12-------------|-^10------------------|
|-----------------------------------------------|----------------------|
|-----------------------------------------------|----------------------|
|
| Q           S S E +S  E.        S S    S    S     Q.    E +Q   +E. S
|-----------------------5---------5s3----3----0-|--------^0-(0)--(0)---|
|-----------------3-(3)-------------------------|--------^1-(1)--(1)---|
|-----------------------------------------------|--------^0-(0)--(0)---|
|-2-----------2s4-------------------------------|--------^2-(2)--(2)-0-|
|-----------------------------------------------|---0------------------|
|-----------------------------------------------|----------------------|


  Dmadd9           Dm7/G                Cmaj7
   W               H..              E   H.                S  S  S  S
|-^0-------------|-1----------------3-|------------------------------|
|-^1-------------|-1------------------|-0----------------------------|
|-^2-------------|-2------------------|-0----------------------------|
|-^0-------------|--------------------|-2----------------------17-19-|
|----------------|--------------------|-3-------------------19-------|
|----------------|--------------------|------------------------------|
|
|  Q.   E +H       Q.    E +Q   S S E   E. S +E  E +S  E. E     S  S
|-------1-(1)----|-------1-(1)--1-----|-------------------0----------|
|-------1-(1)----|-------1-(1)----1---|----------------0-------------|
|-------2-(2)----|-------2-(2)------2-|----------0-(0)---------------|
|--0-------------|--------------------|----2-(2)---------------------|
|----------------|--------------------|-3-----------------------2--0-|
|----------------|-3------------------|------------------------------|


  Am7                               Dm7
   |----3-----|
   S   S     +S   E  +Q     H       Q.   E +H
|---------------------------------|------1-(1)-------------|
|---------------------------------|------1-(1)-------------|
|-17--19b21r(19)p17-(17)----------|------2-(2)-------------|
|---------------------------------|-0----------------------|
|---------------------------------|------------------------|
|---------------------------------|------------------------|
|
|                                              |-3-| |-3-|
|  Q.                    E +H       Q.   E +E  S S S E E E
|------------------------0-(0)----|------1-(1)-1h3p1-------|
|------------------------1-(1)----|------1-(1)-------1---1-|
|------------------------0-(0)----|------2-(2)---------2---|
|--2---------------------2-(2)----|-0----------------------|
|--0------------------------------|------------------------|
|---------------------------------|------------------------|


  Dm7/G                         Cmaj7
    E   E  E  E  +H              H           Q           S  S  T  T  T  T
|-^13--12-10------------------|-^7----------------------------------------|
|-^10--------10-(10)----------|-^8----------20b22-------20-17-20-17----17-|
|-^10-------------------------|-^9----------------------------------19----|
|-----------------------------|-------------------------------------------|
|-----------------------------|-------------------------------------------|
|-----------------------------|-------------------------------------------|
|
|   Q.        E  +Q   S S S S    E. S +E  E +S    S S S  E     S     S
|-------------1--(1)--1-------|---------------------0-3p=0----------------|
|-------------1--(1)----1-----|-------------------0-----------------------|
|-------------2--(2)----------|-----------0-(0)----------------------0----|
|-------------------------0---|-----2-(2)----------------------2----------|
|-----------------------------|--3----------------------------------------|
|---3-----------------------0-|-------------------------------------------|


  Am7                                                 Dm7
   |----3-----|
   S     +S   S  T  T  T  T  T  T  E.    +H           W
|---------------------------------------------------|-------------------|
|---------------------17----------------------------|-------------------|
|-19b21r(19)-17-19-17----17-------------------------|-------------------|
|---------------------------19-17-------------------|-------------------|
|---------------------------------19----(19)--------|-------------------|
|---------------------------------------------------|-------------------|
|
|  Q.                                 E  +Q   +E. S   Q.   E +Q   S S E
|-------------------------------------0--(0)--(0)---|------1-(1)--1-----|
|-------------------------------------1--(1)--(1)---|------1-(1)----1---|
|-------------------------------------0--(0)--(0)---|------2-(2)------2-|
|-------------------------------------2--(2)--(2)-0-|-0-----------------|
|--0------------------------------------------------|-------------------|
|---------------------------------------------------|-------------------|


  Dm7/G                Cmaj7
                                             |---3---|
  W                     H.                   E     E E
|--------------------|-^7------------------------------|
|-6------------------|-^8------------------------------|
|-5------------------|-^9--------------------5b5.5-----|
|-7------------------|-----------------------------7-5-|
|--------------------|---------------------------------|
|--------------------|---------------------------------|
|
|                                            |---3---|
| Q.   E +E. S E S S    E. S +E  E +S  S S S E     E E
|------1-(1)-1-------|-------------------0-3-0---------|
|------1-(1)-1-1-----|-----------------0-----------0---|
|------2-(2)-----2---|-----------0-(0)---------------0-|
|--------------------|-----2-(2)-----------------------|
|------------------0-|--3------------------------------|
|-3------------------|---------------------------------|


  Am7
  S. T T T S +Q     Q    E  S S
|---------------------------------|
|----5----------------------------|
|-7--5----------------------------|
|------7p5------------------------|
|----------7-(7)------------5h7p==|
|---------------------------------|
|
| Q.             E +Q   +E.   S
|----------------0-(0)--(0)-------|
|----------------1-(1)--(1)-------|
|----------------0-(0)--(0)-------|
|----------------2-(2)--(2)-------|
|-0---------------------------0---|
|---------------------------------|


  Dm7                  Dm7/G
  Q   Q   +H             E   E  E  E  +E   S  S  Q
|--------------------|-^13--12-10---------------10\-------|
|--------------------|-^10--------10-(10)----10-----------|
|-----5---(5)--------|-^10----------------10--------------|
|--------------------|------------------------------------|
|-5------------------|------------------------------------|
|--------------------|------------------------------------|
|
|              |-3-|
| Q.    E +Q   E E E     Q.        E  +Q         S  S S S
|-------1-(1)--1-----|-------------1--(1)--------1--1-----|
|-------1-(1)----1---|-------------1--(1)--------1--1-----|
|-------2-(2)------2-|-------------2--(2)--------2--2-----|
|-0------------------|--------------------------------0---|
|--------------------|------------------------------------|
|--------------------|---3------------------------------0-|


  Cmaj7 Fmaj7
  Q   E E +H        W
|-7-----0-(0)----||------||
|-8-----1-(1)----||------||
|-9-----2-(2)----||------||
|-------3-(3)----||------||
|----------------||------||
|----------------||------||
|
| E E E E +H        W
|-------1-(1)----||------||
|-------1-(1)----||------||
|-----0-2-(2)----||------||
|---2---3-(3)----||------||
|-3-----3-(3)----||------||
|-------1-(1)----||------||


  Amadd9      Am7                         D/A
                                                    Gtr I
      |--3--|  |-3--|
  Q   E E   E  E  E E Q       S  E.   E   E  Q       E.    S
|-7---7-7---7--7p=5-5-5-----|----5----5---5--5---------------|
|-5---5-5---5--5----5-5-----|----5----5---7--7---------------|
|-5---5-------------5-5-----|----5----5---7--7---------------|
|-5---5-------------5-5-----|----5----5---7--7---------------|
|-0---0---------------------|------------------------------7-|
|---------------------------|-----------------------12\------|
|
| Q.      E   +Q      S S E   E.    S S S E +S  S E  S S S S
|---------0---(0)-----0-----|---------3s5-5-(5)-5-5--5s3-----|
|---------1---(1)-------1---|---------1s3-3-(3)-3-3--3s1-1---|
|---------0---(0)---------0-|-------0------------------------|
|-2-------2---(2)-----------|------------------------------2-|
|-0-------------------------|-0------------------------------|
|---------------------------|--------------------------------|


 Guitar Solo
  Am7
       ~~~~~~~~~~~~~
  S  S E +Q     +Q   +E  S S   E   E Q     E  E    +Q
|----------------------------|-------------------------------|
|----------------------------|-----5-------------------------|
|----5-------------------5---|-7b9-5----------7b9==(7)-------|
|-7----7-(7)----(7)--(7)---7-|-------------------------------|
|----------------------------|-------------------------------|
|----------------------------|-------------------------------|
|
| Q.          E +H             Q.       E +Q       +S  S S S
|------------^0-(0)----------|---------^0-(0)------(0)-0-----|
|------------^1-(1)----------|---------^1-(1)------(1)---1---|
|------------^0-(0)----------|---------^0-(0)------(0)-----0-|
|------------^2-(2)----------|---------^2-(2)------(2)-------|
|-0--------------------------|-0-----------------------------|
|----------------------------|-------------------------------|


  Dm7
                                            ~~~
                                |--3---|
  +H      +S   S   +S  S  E    +S  S   S    H.            +S  e.
|----------------------------------------|--------------------------|
|----------------------------------------|--------------------------|
|-(7)-----(7)r-7b9r(7)p5--7----(7)p5-----|--------------------------|
|--------------------------------------7-|--------------------------|
|----------------------------------------|-\5-------------(5)-3-----|
|----------------------------------------|--------------------------|
|
|  Q.   E +Q             +S  S  S    S      Q.   E +S  E.  E     E
|-------1-(1)------------(1)-1-----------|-------1-(1)-1------------|
|-------1-(1)-------------------2--------|-------1-(1)-----1--------|
|-------2-(2)------------------------2---|-------2-(2)-----------2--|
|--0-------------------------------------|--0-----------------------|
|----------------------------------------|--------------------------|
|----------------------------------------|--------------------------|


  Dm7/G
       ~~~~~~~
                                                      |---3----|
  a S  E. +Q    +H           S   +S  E +S  S E  Q     E    E   E
|--------------------------|-5b7r(5)p3-(3)h5---------------5-------|
|--------------------------|-----------------------------------8---|
|--------------------------|---------------------------------------|
|------5--(5)---(5)--------|---------------------------------------|
|-5s7----------------------|---------------------------------------|
|--------------------------|---------------------------------------|
|
|   Q.        E +Q   S S E   Q.              E +E  E +S  S   S   S
|-------------1-(1)--1-----|-----------------1-(1)-1-(1)-----------|
|-------------1-(1)----1---|-----------------1-(1)-------1---------|
|-------------2-(2)------2-|-----------------2-(2)-----------------|
|--------------------------|---------------------------------0-----|
|--------------------------|-------------------------------------0-|
|---3----------------------|-3-------------------------------------|


  Cmaj7
  |-3-|              |3-|  |---3----|
  E E E T T T T S S  E  Q +E    E   E
|---7-----------------------------------|
|-----8-5h8p5---5-----------------------|
|-------------7---5--7--5-(5)-----------|
|-------------------------------7---5---|
|---------------------------------------|
|---------------------------------------|
|
| Q     E       E   +Q     S  S   E
|--------------------------0------------|
|-----------------------------0---------|
|---------------0---(0)-----------0-----|
|-------2-------------------------------|
|-3-------------------------------------|
|---------------------------------------|


                                  Am7
                           ~~~~~~~~~~~
     |3-|   |-3-|   |-3-|
  A  E  Q A E E E A E E E  Q      +Q   +S  S E  Q   E.     S
|-------------------------------|----------------------------|
|-------------------------------|------------5-------------5-|
|--------------------------5----|-(5)--(5)-7-----------------|
|-5s=7--5-------------5-7-------|----------------------------|
|---------7s5-3-5-5s7-----------|----------------------------|
|-------------------------------|----------------------------|
|
|    H.                   +E. S    Q.        E +Q   S  S E
|---^0--------------------(0)---|------------0-(0)--0--------|
|---^0--------------------(0)---|------------1-(1)-----1-----|
|---^0--------------------(0)---|------------0-(0)-------0---|
|---^2--------------------(2)---|--2---------2-(2)-----------|
|-----------------------------0-|--0-------------------------|
|-------------------------------|----------------------------|


                                 |---3----|
  S  S E +S  e.    Q    E       +S   S    S
|-5--8-5-(5)h8---------17------(17)----------|
|----------------------20b22---(20)-20---17--|
|--------------------------------------------|
|--------------------------------------------|
|--------------------------------------------|
|--------------------------------------------|
|
| Q.            E +Q   +S    S   S     S
|---------------0-(0)--(0)---0---------------|
|---------------1-(1)------------1-----------|
|---------------0-(0)------------------0-----|
|---------------2-(2)------------------------|
|-0------------------------------------------|
|--------------------------------------------|


  Dmadd9                                                     Dm7
   |----3-----|
   S     +S   S  T  T  T  T  T  T  E.    S   S  S  S  E       +E
|----------------------------------------------------------------------|
|---------------------17-----------------------------------------------|
|-19b21r(19)p17-19p17----17--------------------17----19b21---(19)b22---|
|---------------------------19p17-----------19----19-------------------|
|---------------------------------19-----------------------------------|
|----------------------------------------------------------------------|
|
|                                                     |------3-------|
|  Q.                                 E +Q            E    E         E
|-------------------------------------0-(0)-----------1----------------|
|-------------------------------------1-(1)----------------1-----------|
|-------------------------------------2-(2)--------------------------2-|
|--0-------------------------------------------------------------------|
|----------------------------------------------------------------------|
|----------------------------------------------------------------------|


                                                             Dm7/G
   ~~~                         ~~~~~~~~~~~~~~
                                                   |--3--|    |--3---|                               |----3-----|
   Q    S  S  T     +T   T  T  Q         +S   S    S  S  S    S   S  S  E  +S   S  S  T  T  S   E.   e     E    E
|----------------------------------------------------------|-----17-19-20-(20)-19-20-19h20p19------(19)---19---20----|
|----------------------------------------------------17-18-|-20--------------------------------20--------------------|
|-19---17-19-19b21r(19)p17-------------------17---19-------|---------------------------------------------------------|
|--------------------------19-19--------(19)---------------|---------------------------------------------------------|
|----------------------------------------------------------|---------------------------------------------------------|
|----------------------------------------------------------|---------------------------------------------------------|
|
|                                 |-3-|   |-----3-----|
|  Q.         E               +E  S S S   E     E     E       Q.                   E       +Q        S  S    E
|-------------1---------------(1)-1-3-1--------------------|-----------------------1-------(1)-------1---------------|
|-------------1---------------(1)---------1-----------1----|-----------------------1-------(1)----------1------------|
|-------------2---------------(2)---------------2----------|-----------------------2-------(2)---------------2-------|
|--0-------------------------------------------------------|---------------------------------------------------------|
|----------------------------------------------------------|---------------------------------------------------------|
|----------------------------------------------------------|--3------------------------------------------------------|


                                                          Cmaj7
                                                           ~~~~~~~~~~~~
           |---3---|  |---3----|     |------3-------|               |-----3-----|  |----3----|
   S   E.  E  E    E  E     E  E     E       +E     E      Q       +E   E       E  E      E  E  T     +T   +E   S
|-19------19-19---20-20b22-20---------------------------|-------------------------17--------17--------------------|
|-----20----------------------20b22-20b22r==(20)---17---|----------------------17--------20-----------------------|
|-------------------------------------------------------|-19b21---(19)-19b21-------------------19b21r(19)-(19)-17-|
|-------------------------------------------------------|---------------------------------------------------------|
|-------------------------------------------------------|---------------------------------------------------------|
|-------------------------------------------------------|---------------------------------------------------------|
|
|  Q.           E    +Q              S    S      S    S    E.   S  +E        E    +S  E.        Q
|---------------1----(1)-------------1------------------|---------------------------------------0-----------------|
|---------------1----(1)------------------1-------------|-----------------------------0---------------------------|
|---------------2----(2)-------------------------0------|--------------------0----(0)-----------------------------|
|-----------------------------------------------------0-|-------2--(2)--------------------------------------------|
|--3----------------------------------------------------|--3------------------------------------------------------|
|-------------------------------------------------------|---------------------------------------------------------|


   ~~~
       |--3--|              |--3--|
   E   S  S  S  T  T  T  T  S  S  S  T  T  T  T  T  S.  +S   e  S
|-----------17----------17-------------------------------------------|
|--------17----20p17-------------------------------------------------|
|-----19-------------20----20p19p17-19p17----------------------------|
|-19--------------------------------------19p17-------------17-19----|
|-----------------------------------------------19-19--(19)----------|
|--------------------------------------------------------------------|
|
|  H.                                                   +E.     S
|--0----------------------------------------------------(0)----------|
|--0----------------------------------------------------(0)----------|
|--0----------------------------------------------------(0)----------|
|--2----------------------------------------------------(2)----------|
|---------------------------------------------------------------0----|
|--------------------------------------------------------------------|


  Am7
                     |--3--|
   +E   E      S  S  S  S  S  Q       S     +S   E
|----------------------------------------------------|
|----------------------------------------------------|
|------17b17.5------17----17-19b21---19b21r(19)-17---|
|-(19)-----------19----19----------------------------|
|----------------------------------------------------|
|----------------------------------------------------|
|
|   Q.               E        E    E  E          S S
|--------------------0--------0----0-----------------|
|--------------------1--------1-------1--------------|
|--------------------0--------0----------------------|
|---2----------------2--------2------------------2-0-|
|---0------------------------------------------------|
|----------------------------------------------------|


  Dm7                                    Dm7/G
   ~~               ~~~
        |---3----|        |----3-----|    |--3---|   |---3----|  |---3----|  |----3----|
   Q   +E   E    E  Q    +E     E    E    E   E  E  +E   E    E  E   E    E  E    E    E
|------------------------------19---20-|-19--------------------------------------------------|
|---------------17-18---(18)-----------|-----20-20-(20)-17---20-----17-----------------------|
|-19--(19)-19--------------------------|------------------------19-------17-19---16----------|
|--------------------------------------|----------------------------------------------17-----|
|--------------------------------------|-----------------------------------------------------|
|--------------------------------------|-----------------------------------------------------|
|
|  Q    E     E    +Q     S  S    E       Q.               E    +E     E     S S    S    S
|-------------1----(1)----1------------|-------------------1----(1)----1---------------------|
|-------------1----(1)-------1---------|-------------------1----(1)----------1---------------|
|-------------2----(2)------------2----|-------------------2----(2)------------2-------------|
|--0-----------------------------------|--------------------------------------------0--------|
|--------------------------------------|-------------------------------------------------0---|
|--------------------------------------|--3--------------------------------------------------|


  Cmaj7
                            ~~~~~
         |-------6-------|
   Q     S   S  S  S  S  S  Q       E    E
|---------------------------------------------|
|-----------------------------------0---------|
|-----------------17-19p17-19b21----0---------|
|-------17--19-17-----------------------------|
|-19------------------------------------------|
|---------------------------------------------|
|
|  E. S +E         E       +S    E. S S  S  S
|-----------------------------------0---------|
|--------------------------------0----0-------|
|------------------0-------(0)----------------|
|-----2-(2)-----------------------------------|
|--3------------------------------------(3)-0-|
|---------------------------------------------|


  Am7
   TP   TP TP TP TP TP TP TP  TP TP TP TP TP TP TP TP TP TP TP
   Q    S  T  T  S  T  T  S   T  T  S  T  T  S  T  T  S  T  T
|-17---20-19-17-20-19-17-20--19-17-20-19-17-20-19-17-20-19-17-|
|-------------------------------------------------------------|
|-------------------------------------------------------------|
|-------------------------------------------------------------|
|-------------------------------------------------------------|
|-------------------------------------------------------------|
|
|  Q.            E       +Q                  S  S     S  S
|----------------0-------(0)-----------------0----------------|
|----------------1-------(1)--------------------1-------------|
|----------------0-------(0)--------------------------0-------|
|----------------2-------(2)-----------------------------0----|
|--0----------------------------------------------------------|
|-------------------------------------------------------------|


  Dm7
                         |--3---|  |---3----|                   |-------6--------|
   E.    T  T  T  S.    +S   S  S  S     S  S  T  T     +T   T  S  S    S  S  S  S
|-20b22-17----17-------------------------------------------------------------------|
|----------20----20b22-(20)-20-17-------17-20-17-----------------------------------|
|---------------------------------19b21----------19b21r(19)p17-19p17---------------|
|----------------------------------------------------------------------19-19p17----|
|-------------------------------------------------------------------------------19-|
|----------------------------------------------------------------------------------|
|
|  Q           E         E        +E           E                S    S     E
|------------------------1--------(1)----------1----------------1------------------|
|------------------------1--------(1)----------1---------------------1-------------|
|------------------------2--------(2)----------2---------------------------2-------|
|--0-------------------------------------------------------------------------------|
|----------------------------------------------------------------------------------|
|----------------------------------------------------------------------------------|


  Dm7/G
                                            2/4
                          ~~~
    E   S  S  S  S  E     Q     S  S  S  S    E  e  e  E
|------------------------------------------|-------------||
|------------------------------------17-18-|-20-18-17----||
|------------17----19b21-19----17-19-------|----------17-||
|------17-19----19-------------------------|-------------||
|-(19)-------------------------------------|-------------||
|------------------------------------------|-------------||
|
|   Q.              E    +E  E  S  S  S  S    E  E  E  E
|------------------^1----(1)-1-------------|-----------1-||
|------------------^1----(1)----1----------|-----------1-||
|------------------^2----(2)-------2-------|--------0--2-||
|-------------------------------------0----|-----2-----3-||
|----------------------------------------0-|--3--------3-||
|---3--------------------------------------|-----------1-||

[ Tab from: http://www.guitartabs.cc/tabs/t/thin_lizzy/still_in_love_with_you_ld_tab.html ]
 4/4
   +Q    S  S  E  E    E  S     +S   E
|--------------------------------------|
|--------------------------------------|
|-(17)--------17-19b21---19b21r(19)p17-|
|-------17h19--------------------------|
|--------------------------------------|
|--------------------------------------|
|
|  +W
|--(1)---------------------------------|
|--(1)---------------------------------|
|--(2)---------------------------------|
|--(3)---------------------------------|
|--(3)---------------------------------|
|--(1)---------------------------------|


  Am7
   ~~~
                      |---3---|
   H       +E   S  S  E  E    E    Q    S S E E.   +T   T S S a S S
|----------------------------20-|-19\-------------------------------||
|-----------------------17------|-----------------------------------||
|-16------(16)-16-17-19---------|-------4-5-7-7b9==(7)r-5-----------||
|-------------------------------|-------------------------7-5-------||
|-------------------------------|-----------------------------7s5-3-||
|-------------------------------|-----------------------------------||
|
|  Q.   E  +Q.             E       E. S S S E E.    S     S S   E
|-------0--(0)-------------0----|-----------------------------------||
|-------1--(1)------------------|-----1-----3-3-----------3s1-------||
|-------0--(0)------------------|--0--------------------------------||
|--2----2--(2)------------------|-------2s4---------4-----------2---||
|--0----------------------------|-----------------------------------||
|-------------------------------|-----------------------------------||


 Verse
  Am7             Dm7                 Dm7/G
                  Gtr III
  W               Q.   E +H           Q.   E +Q.      E
|---------------|------1-(1)--------|------1-(1)------3-|
|---------------|------1-(1)--------|------1-(1)--------|
|---------------|------2-(2)--------|------2-(2)--------|
|---------------|-0-----------------|-------------------|
|-0-------------|-------------------|-------------------|
|---------------|-------------------|-3-----------------|
|
| Q.   E +H       Q.   E +Q   S S E   Q.   E +Q   S S E
|------0-(0)----|------1-(1)--1-----|------1-(1)--1-----|
|------1-(1)----|------1-(1)----1---|------1-(1)----1---|
|------0-(0)----|------2-(2)------2-|------2-(2)------2-|
|------2-(2)----|-0-----------------|-------------------|
|-0-------------|-------------------|-------------------|
|---------------|-------------------|-3-----------------|


  Cmaj7                             Am7
  H          +S  S  S S S   S E     T T E. +Q    +Q   Q
|-0----------(0)------------------|----------------------|
|-0----------(0)------------------|----------------------|
|-0----------(0)------5-7b9-7-5---|----------------------|
|-2----------(2)----7-------------|-7p5------------------|
|-3----------(3)-7----------------|-----7--(7)---(7)-----|
|---------------------------------|----------------------|
|
| E. S +E  E +S  E.     E     S S   Q.         E +H
|-----------------------0---------|------------0-(0)-----|
|----------------0----------------|------------1-(1)-----|
|----------0-(0)------------------|------------0-(0)-----|
|----2-(2)------------------------|------------2-(2)-----|
|-3---------------------------2-0-|-0--------------------|
|---------------------------------|----------------------|


  Dm7               Dm7/G
  W                   E   E  E  S  S  +Q    Q
|-----------------|-^13--12-10-------------10----|
|-----------------|-^10--------10-13-(13)--10----|
|-----------------|-^10--------------------------|
|-----------------|------------------------------|
|-----------------|------------------------------|
|-----------------|------------------------------|
|
| Q.   E +E  E Q      Q.        E     +Q   +E. S
|------1-(1)-3-1--|-------------1-----(1)--(1)---|
|------1-(1)------|-------------1-----(1)--(1)---|
|------2-(2)------|-------------2-----(2)--(2)---|
|-0---------------|------------------------------|
|-----------------|----------------------------0-|
|-----------------|---3--------------------------|


  Cmaj7
   H           E     S S T    +T  +S  S S
|-^7-----------5-------5------------------|
|-^8-----------5-----8-5------------------|
|-^9---------------------7b9==(7)r(7)-5---|
|---------------------------------------7-|
|-----------------------------------------|
|-----------------------------------------|
|
|  E. S +E  E +S  E.     E            S S
|------------------------0----------------|
|-----------------0-----------------------|
|-----------0-(0)-------------------------|
|-----2-(2)-------------------------------|
|--3----------------------------------2-0-|
|-----------------------------------------|


  Am7             Dm7
  W               W
|---------------|-----------------------|
|---------------|-----------------------|
|---------------|-----------------------|
|---------------|-----------------------|
|-0-------------|-----------------------|
|---------------|-----------------------|
|
| Q.   E +H       Q.   E +Q   +S  S S S
|------0-(0)----|------1-(1)--(1)-1-----|
|------1-(1)----|------1-(1)--(1)---1---|
|------0-(0)----|------2-(2)--(2)-----2-|
|------2-(2)----|-0---------------------|
|-0-------------|-----------------------|
|---------------|-----------------------|


  Dm7/G                 Cmaj7
                                                    |----3-----|
  E  E E E +Q   +E  E   H           E.     S  S  S  S  S       S
|--------1-(1)--(1)-3-|-0----------------------------------------|
|------1--------------|-0----------------------------------------|
|----2----------------|-0-----------------------17-19-19b21---19-|
|---------------------|-2--------------------19------------------|
|---------------------|-3-----------------19---------------------|
|-3-------------------|------------------------------------------|
|
| H.            +E  E   E. S +E  E +S  E.     E     S       S
|---------------------|-----------------------0------------------|
|---------------------|----------------0-------------------------|
|-------------------2-|----------0-(0)---------------------------|
|---------------------|----2-(2)---------------------------------|
|---------------------|-3---------------------------2-------0----|
|-3-------------(3)---|------------------------------------------|


  Am7
   S   S  S  S  Q    +Q   Q
|-----------17-19---(19)-----|
|--------17------------------|
|-17--19---------------------|
|----------------------------|
|----------------------------|
|----------------------------|
|
|  Q.             E  +H
|-----------------0--(0)-----|
|-----------------1--(1)-----|
|-----------------0--(0)-----|
|-----------------2--(2)-----|
|--0-------------------------|
|----------------------------|


  Dm7                     Dm7/G
                                                              2/4
  Q.     E +H               E   E  E  E  +E   S  S  Q           Q   E E
|--------1-(1)----------|-^13--12-10---------------10\-------|-^7-----0-||
|--------1-(1)----------|-^10--------10-(10)----10-----------|-^8-----1-||
|--------2-(2)----------|-^10----------------10--------------|-^9-----2-||
|-0---------------------|------------------------------------|--------3-||
|-----------------------|------------------------------------|----------||
|-----------------------|------------------------------------|----------||
|
|                 |-3-|
| E  E E E +S  E. E E E     Q.        E  +Q         S  S S S    E E E E
|--------1-(1)-1--------|-------------1--(1)--------1--------|--------1-||
|--------1-(1)----1---1-|-------------1--(1)-----------1-----|--------1-||
|------2------------2---|-------------2--(2)-----------------|------0-2-||
|----0------------------|--------------------------------0---|----2---3-||
|-----------------------|------------------------------------|--3-----3-||
|-----------------------|---3------------------------------0-|--------1-||


 4/4          3/4
  +W            W
|-(0)--------|-----------|
|-(1)--------|-----------|
|-(2)--------|-----------|
|-(3)--------|-----------|
|------------|-----------|
|------------|-----------|
|
| +W           +Q   H
|-(1)--------|-(1)-------|
|-(1)--------|-(1)-------|
|-(2)--------|-(2)-------|
|-(3)--------|-(3)-------|
|-(3)--------|-(3)-------|
|-(1)--------|-(1)-------|


 Guitar groove/solo
  Amadd9        Am7                         D/A
 4/4
       |--3---|  |-3--|
  Q   +E  E   E  E  E E Q       S  E.   E   E +H
|-7---(7)-7---7--7p=5-5-5-----|--------------------------|
|-5---(5)-5---5--5----5-5-----|----5----5---7-(7)--------|
|-5---(5)-------------5-5-----|----5----5---7-(7)--------|
|-5---(5)---------------5-----|----5----5---7-(7)--------|
|-0---(0)---------------------|--------------------------|
|-----------------------------|--------------------------|
|
| Gtr I
|                       |-3-|
| Q.        E   +Q      E E E   E.    S S S E  E. S E  E
|-----------0---(0)-----0-----|------------------------0-|
|-----------1---(1)-------1---|-------1-----3--3--0-3/-0-|
|-----------0---(0)---------0-|--------------------------|
|-----------2---(2)-----------|-2-------2s4--------------|
|-0---------------------------|--------------------------|
|-----------------------------|--------------------------|


  Aadd11   Am7
   S     E  S  E         E     +E.  +S   S    S E
|-12-------12-----------12----(12)-(12)-12---12-----|
|-12h===13-13-----------13----(13)-(13)-13---13-----|
|-12-------12-----------12----(12)-(12)-12---12-----|
|-12h===14-14-----------14----(14)-(14)-14---14-----|
|-12-------12-----------12----(12)-(12)-12---12-----|
|---------------------------------------------------|
|
|              |--3---|
|  Q          +S  +S  S  E     +Q       +S    S S S
|-----------------------------------------------5---|
|---------------------------------------------5---8-|
|--7b9========(7)r(7)p5--7b9===(7)------(7)r--------|
|---------------------------------------------------|
|---------------------------------------------------|
|---------------------------------------------------|


  Aadd11     Am7
   S       E  S  +E   E  +E    E      S  S   E
|-12---------12-(12)-12-(12)--12-----12-12-------|
|-12h=====13-13-(13)-13-(13)--13-----13-13-------|
|-12---------12-(12)-12-(12)--12-----12-12-------|
|-12h=====14-14-(14)-14-(14)--14-----14-14-------|
|-12---------12-(12)-12-(12)--12-----12-12-------|
|------------------------------------------------|
|
|  ~~~~~~~
|                              |-3-|  |---3----|
|  H                     +E    S S S  E    E   E
|------------------------------------------------|
|--8pb10=================(8)r--5h6p5-------------|
|-------------------------------------7----5-----|
|----------------------------------------------7-|
|------------------------------------------------|
|------------------------------------------------|


  Dadd1Dm7                                     DaddDm7
  S E  S +E  E +E    E     S S   E             S E S +E  E +S   S E S S E
|-5----5-(5)-5-(5)---5-----5-5---------------|-5---5-(5)-5-(5)--5-5-5-5-----|
|-5h6--6-(6)-6-(6)---6-----6-6---------------|-5h6-6-(6)-6-(6)--6-6-6-6-----|
|-5----5-(5)-5-(5)---5-----5-5---------------|-5---5-(5)-5-(5)--5-5-5-5-----|
|-5h7--7-(7)-7-(7)---7-----7-7---------------|-5h7-7-(7)-7-(7)--7-7-7-7-----|
|-5----5-(5)-5-(5)---5-----5-5---------------|-5---5-(5)-5-(5)--5-5-5-5-----|
|--------------------------------------------|------------------------------|
|
|                    |-3-| |-3-|
| S E.   +Q    +S  S S S S E   S S T     +T    H            Q.          S S
|--------------------------------------------|------------------------------|
|--------------------------------------------|--------------------------x-0-|
|-5s7----(7)---(7)---5h7p5-7p==5-------------|------------------------------|
|------------------7-------------7-----------|------------------------------|
|----------------------------------7b7.5r(7)p|=5-----------(5)/-------------|
|--------------------------------------------|------------------------------|


  Eadd11  Em7
   S    E S  E     S      S  +S   E  S   S    E.
|--7------7--7----10-----10-(10)-10-10--10----7-----------|
|--7h===8-8--8-----8------8--(8)--8--8---8----8-----------|
|--7------7--7-----7------7--(7)--7--7---7----7-----------|
|--7h===9-9--9-----9------9--(9)--9--9---9----9-----------|
|--7------7--7-----7------7--(7)--7--7---7----7-----------|
|---------------------------------------------------------|
|
|                  ~~~~~~~~~~~~~~~~~~~~~~~~~~
|  Q         E     E         +Q         +S    T   T  S  S
|---------------------------------------------------------|
|-15b17-----15b17-15b17=====(15)-------(15)r--------13----|
|--------------------------------------------14--14----14-|
|---------------------------------------------------------|
|---------------------------------------------------------|
|---------------------------------------------------------|


  F
   E.       S     E        S  S  +Q     S   E.
|----------------------------------------------------|
|-10-------10----10-------10-10-(10)---10--10--------|
|-10-------10----10-------10-10-(10)---10--10--------|
|-10-------10----10-------10-10-(10)---10--10--------|
|--8--------8-----8--------8--8--(8)----8---8--------|
|----------------------------------------------------|
|
|                          ~~~~~~~~~~~~~~~~
|  S  S  S  T  T  S  S  a  E     +Q    +E        E
|----------------------------------------------------|
|-15p13----------------------------------------------|
|-------14p12----12----12s14----(14)--(14)-----(14)\-|
|-------------14----14-------------------------------|
|----------------------------------------------------|
|----------------------------------------------------|


  Eadd11       Em7
  S E          S     E        S  S      +S   E                S   S  E.
|-7------------7-----7-------10-10-----(10)-10---------------10--10--7----|
|-7h8----------8-----8--------8--8------(8)--8----------------8---8--8----|
|-7------------7-----7--------7--7------(7)--7----------------7---7--7----|
|-7h9----------9-----9--------9--9------(9)--9----------------9---9--9----|
|-7------------7-----7--------7--7------(7)--7----------------7---7--7----|
|-------------------------------------------------------------------------|
|
|                                                      ~~~~~~
| |-3--|  |---3---|  |--3--|             |--3---|
| e    S  S  S    S  S  S  S  S  S       E      S      E         +E.    S
|----------------------12-13-15-15pb17--15-----15pb17-15b17=====(15)------|
|-----------12h==13-15----------------------------------------------------|
|-0---12h14-------------------------------------------------------------0-|
|-------------------------------------------------------------------------|
|-------------------------------------------------------------------------|
|-------------------------------------------------------------------------|


  F
   E.          S  E      S       S  +Q    S      E.
|----------------------------------------------------------|
|-10----------10-10-----10------10-(10)--10-----10---------|
|-10----------10-10-----10------10-(10)--10-----10---------|
|-10----------10-10-----10------10-(10)--10-----10---------|
|--8-----------8--8------8-------8--(8)---8------8---------|
|----------------------------------------------------------|
|
|  S  T  T  S  S  S  S  +E          +Q    S     +S   S  S
|-13h15p13s12h13p12----------------------------------------|
|-------------------15-(15)b17=====(15)--15b17r(15)p13-----|
|------------------------------------------------------14--|
|----------------------------------------------------------|
|----------------------------------------------------------|
|----------------------------------------------------------|


  Eadd11    Em7
   S      E S  E     S  S  +S   E  S   S   E.
|--7--------7--7----10-10-(10)-10-10--10---7--------|
|--7h=====8-8--8-----8--8--(8)--8--8---8---8--------|
|--7--------7--7-----7--7--(7)--7--7---7---7--------|
|--7h=====9-9--9-----9--9--(9)--9--9---9---9--------|
|--7--------7--7-----7--7--(7)--7--7---7---7--------|
|---------------------------------------------------|
|
|                    ~~~~~~~~~~            PM     PM
|  T  E..      S  S  E     +Q         +S   S   S  S
|---------------------------------------------------|
|-15p13---------------------------------------------|
|---------------------------------------------12----|
|-------------14p12-14----(14)-------(14)-14-----14-|
|---------------------------------------------------|
|---------------------------------------------------|


  F
   E.          S  E     S  S  +Q            S  E.
|-----------------------------------------------------|
|-10----------10-10----10-10-(10)----------10-10------|
|-10----------10-10----10-10-(10)----------10-10------|
|-10----------10-10----10-10-(10)----------10-10------|
|--8-----------8--8-----8--8--(8)-----------8--8------|
|-----------------------------------------------------|
|
|        PM---|
|  T  T  S  S  S  S  S  E     +S   S  S  S  E     S S
|-----------------------------------------------------|
|-------------------------------------------------x-0-|
|-14p12-----------------------------------------------|
|-------14-12----------12----(12)s10------------------|
|-------------15-14h15---------------12-10-12---------|
|-----------------------------------------------------|


  Cmaj7
   S     S E E S S H
|--7-----7-----7-7------------------------|
|--8-----8-----8-8------------------------|
|--9-----9-----9-9------------------------|
|-----------------------------------------|
|-----------------------------------------|
|-----------------------------------------|
|
|                            |----3-----|
|  H.                  +E    S     +S   S
|-----------------------------------------|
|-15b17===============(15)r-15b17r(15)p13-|
|-----------------------------------------|
|-----------------------------------------|
|-----------------------------------------|
|-----------------------------------------|


  F                              Cmaj7
   S     S E E  S  S H            S  S  E   E  S S   H
|--8-----8------8--8--------|-----7--7---------7-7---------|
|-10----10-----10-10--------|-----8--8---------8-8---------|
|-10----10-----10-10--------|-----9--9---------9-9---------|
|---------------------------|------------------------------|
|---------------------------|------------------------------|
|---------------------------|------------------------------|
|
|  ~~~~~                             ~~~~~~~~~~~~~~~~~~~
|  H.                    Q     a  S  E.    +Q       +H
|-----------------------15--|------------------------------|
|-15b17---------------------|-17s15p13----(13)-----(13)----|
|---------------------------|------------------------------|
|---------------------------|------------------------------|
|---------------------------|------------------------------|
|---------------------------|------------------------------|


  F                             Fmaj7
   S  S  E     E        S  S  S  e.       S  e.
|--8--8-----------------8--8----12----------12------|
|-10-10----------------10-10----10----------10------|
|-10-10----------------10-10----10----------10------|
|---------------------------------------------------|
|---------------------------------------------------|
|---------------------------------------------------|
|
|  S  S  S  S  T  S  T  S  S  S  S  S  S  S  S   E
|---------------------------------------------------|
|-------13----15p13---------------------------------|
|--x-14----14-------14p12-14p12---------------------|
|-------------------------------14p12s10------------|
|----------------------------------------12p10--10\-|
|---------------------------------------------------|


  Cmaj7
  S S   E   E       S S H
|-7-7---------------7-7----------------------|
|-8-8---------------8-8----------------------|
|-9-9---------------9-9----------------------|
|--------------------------------------------|
|--------------------------------------------|
|--------------------------------------------|
|
| S E     S S T T   S S S S   +S  S S S S S
|-----------5-----------5--------------------|
|---------5---8p5b7---5-5--------------------|
|-0-7b9-------------7---5-7b9r(7)p5---5-5----|
|-----------------------------------7-----7--|
|--------------------------------------------|
|--------------------------------------------|


  F                 Fmaj7
   S  S E   E        S   S     E.      S  S  S E
|--8--8-------------12--12------------12----12-----|
|-10-10-------------10--10------------10----10-----|
|-10-10-------------10--10------------10----10-----|
|--------------------------------------------------|
|--------------------------------------------------|
|--------------------------------------------------|
|
|  E    S S S +S    +S  +S    +S  S S  S  S  S S S
|--------------------------------------------------|
|--------------------------------------------------|
|--5----7-5-7-(7)b9r(7)-(7)b9r(7)-5----------------|
|-----------------------------------7--5-----------|
|----------------------------------------\5--3-3---|
|------------------------------------------------5-|


  Cmaj7         CadCmaj7       CadCmaj7
  S S E    E     S S  Q         S S E
|-7-7-----------10-7-----------10-7-----|
|-8-8------------8-8------------8-8-----|
|-9-9------------9-9------------9-9-----|
|---------------------------------------|
|---------------------------------------|
|---------------------------------------|
|
| S S S S +S  E    S +S  S S S  S S S S
|---------------------------------------|
|---------------------------------------|
|---------------------------------------|
|-------------------------------------5-|
|-3------------------------3-3--3s5h7---|
|---5-5-5-(5)-3----3-(3)-5--------------|


  Fmaj7                                   Bmaj7  Cmaj7    CadCmaj7
   S  S E    E     S  S     H             S    S S S E     S S H
|-12-12-----------12-12-----------------|-6s===7-7-7-7----10-7-------------|
|-10-10-----------10-10-----------------|-7s===8-8-8-8-----8-8-------------|
|-10-10-----------10-10-----------------|-8s===9-9-9-9-----9-9-------------|
|---------------------------------------|----------------------------------|
|---------------------------------------|----------------------------------|
|---------------------------------------|----------------------------------|
|
|  S  S S S +S  S  S  S    +Q   +E. +S    Q          Q         Q     Q
|---------------------------------------|----------------------------------|
|---------------------------------------|----------------------------------|
|---------5-(5)-7--5--7b9==(7)--(7)r(7)-|----------------------------------|
|--7--5-7-------------------------------|-5tr7-------5tr7------5tr7--5tr7--|
|---------------------------------------|----------------------------------|
|---------------------------------------|----------------------------------|


  F               Fmaj7
   S     S E E     S  S S     S S  S S     S S  S
|--8-----8--------12-12------12---12------12---12-|
|-10----10--------10-10------10---10------10---10-|
|-10----10--------10-10------10---10------10---10-|
|-------------------------------------------------|
|-------------------------------------------------|
|-------------------------------------------------|
|
|  Q         Q          Q            Q
|-------------------------------------------------|
|-------------------------------------------------|
|--5tr7------5tr7-------5tr7---------5tr7---------|
|-------------------------------------------------|
|-------------------------------------------------|
|-------------------------------------------------|


        Cmaj7    CadCmaj7   Cadd9 Cmaj7
   S    S E E     S S Q      S    S E
|-12----7-7-7----10-7-------10----7---|
|-10----8-8-8-----8-8--------8----8---|
|-10----9-9-9-----9-9--------9----9---|
|-------------------------------------|
|-------------------------------------|
|-------------------------------------|
|
|  Q        Q         Q      E      E
|-------------------------------------|
|--5tr8-----5tr8------5tr8---5tr8---5-|
|-------------------------------------|
|-------------------------------------|
|-------------------------------------|
|-------------------------------------|


  F                      Fmaj7
   S  S     E   E         S  S      Q               S  S  E
|--8--8------------------12-12---------------------12-12--------|
|-10-10------------------10-10---------------------10-10--------|
|-10-10------------------10-10---------------------10-10--------|
|---------------------------------------------------------------|
|---------------------------------------------------------------|
|---------------------------------------------------------------|
|
|  S  E.        S   E        S      S.     T  S  S  S  S  S  S
|--------------15--15b17----15pb17-15pb17-----------------------|
|--0-15b17====(15)-15-------15-----15-----13-15-13----13--------|
|--------------------------------------------------14----14-12--|
|---------------------------------------------------------------|
|---------------------------------------------------------------|
|---------------------------------------------------------------|


  Cmaj7            CadCmaj7            CadCmaj7
   S S  E     E     S  S   Q            S  S  E
|--7-7-------------10--7---------------10--7------|
|--8-8--------------8--8----------------8--8------|
|--9-9--------------9--9----------------9--9------|
|-------------------------------------------------|
|-------------------------------------------------|
|-------------------------------------------------|
|
|          PM                           PM------|
|  E    S  S  S  S  S  S  +S   S  S  S  S  S  S S
|-------------------------------------------------|
|-------------------------------------------------|
|-14s==12----12-14-12-12-(12)---------------------|
|---------14------------------14-12s10-10-12-10-9-|
|-------------------------------------------------|
|-------------------------------------------------|


  F                Fmaj7          F
   S  S  E     E    S  S  Q    S   S  E
|--8--8------------12-12------12---8------|
|-10-10------------10-10------10--10------|
|-10-10------------10-10------10--10------|
|-----------------------------------------|
|-----------------------------------------|
|-----------------------------------------|
|
|  S  S  S  S  S S  S  S +Q   +E      E
|-----------------------------------------|
|-----------------------------------------|
|-----------------------------------------|
|-10-12-10-10-10-7-10p=7-(7)--(7)----(7)\-|
|-----------------------------------------|
|-----------------------------------------|


  Cmaj7       CadCmaj7     CadCmaj7 F              Fmaj7
  S S E   E    S S  Q       S S E    S  S  E   E    S  S  Q       S   S E
|-7-7---------10-7---------10-7---|--8--8----------12-12---------12--12---|
|-8-8----------8-8----------8-8---|-10-10----------10-10---------10--10---|
|-9-9----------9-9----------9-9---|-10-10----------10-10---------10--10---|
|---------------------------------|---------------------------------------|
|---------------------------------|---------------------------------------|
|---------------------------------|---------------------------------------|
|
|                                                              ~~~~~~
| S S S S S S  S S +E  S S  S S E    S  S  S S S S  S  S +S  S E +Q
|---------------------------------|----------------------------8-(8)------|
|---------------------------------|--------------------8-(8)-8------------|
|-----5---5-7s=9-7-(7)s5----5-7-5-|--7-----5---5-7s=9---------------------|
|---7---7----------------7--------|----------7----------------------------|
|-0-------------------------------|-----5/--------------------------------|
|---------------------------------|---------------------------------------|


        Cmaj7     Cadd9  Cmaj7   Cadd9 Cmaj7
   S    S S T T E  S     S   Q     S    S  E
|-------7-7-7-7---10-----7--------10----7-------|
|-------8-8-8-8----8-----8---------8----8-------|
|-------9-9-9-9----9-----9---------9----9-------|
|-----------------------------------------------|
|-----------------------------------------------|
|-----------------------------------------------|
|
|  Q.              E        +Q    +S    S  S  S
|-----------------------------------------------|
|-20b22-----------20b22====(20)--(20)r-20-18p17-|
|-----------------------------------------------|
|-----------------------------------------------|
|-----------------------------------------------|
|-----------------------------------------------|


  F                   Fmaj7
   S  S    E     E     S     S  Q      S  S    E
|--8--8---------------12----12--------12--8--------------|
|-10-10---------------10----10--------10-10--------------|
|-10-10---------------10----10--------10-10--------------|
|--------------------------------------------------------|
|--------------------------------------------------------|
|--------------------------------------------------------|
|
|  |----3-----|  |---3----|            |-----3-----|
|  E     E    E  E  E     E     E.  S  E     E    +E
|--------------------------------------------------------|
|-18----20---18----17------------------------------------|
|---------------19-------19----17-----17----19---(19)b21-|
|----------------------------------19--------------------|
|--------------------------------------------------------|
|--------------------------------------------------------|


  Cmaj7        CadCmaj7     Cadd9 Cmaj7
   S     S E E  S S S S S S  S    S E
|--7-----7---x-10-7-----x-x-10----7-----------|
|--8-----8---x--8-8-----x-x--8----8-----------|
|--9-----9---x--9-9---9-x-x--9----9-----------|
|---------------------------------------------|
|---------------------------------------------|
|---------------------------------------------|
|
|  ~~~~~~
|  H.                        E.        +T   T
|---------------------------------------------|
|-15b17=====================15b17r====(15)p13-|
|---------------------------------------------|
|---------------------------------------------|
|---------------------------------------------|
|---------------------------------------------|


  F               Fmaj7
   S  S  E   S  S  S  S  +Q    Q
|--8--8------x--x-12-12-(12)--13\---|
|-10-10------x--x-10-10-(10)--13\---|
|-10-10------x--x-10-10-(10)--------|
|-----------------------------------|
|-----------------------------------|
|-----------------------------------|
|
|     ~~~~~~~~~~~~~~~~~~~~~~~
|  S  E.    +Q           +H
|-----------------------------------|
|-15p13----(13)---------(13)--------|
|-----------------------------------|
|-----------------------------------|
|-----------------------------------|
|-----------------------------------|


 Outro
  C
  Gtr I
                                             ~~
   S  S  S  S  S  S  S  S  S  S  S  S  S  S  E
|-13p12----13p12----13p12----13p12----13p12----|
|-------13-------13-------13-------13-------13-|
|----------------------------------------------|
|----------------------------------------------|
|----------------------------------------------|
|----------------------------------------------|
|
|                                            ~~
|  S  S  S  S  S  S  S  S  S  S  S  S  S  S  E
|----------------------------------------------|
|-13p10----13p10----13p10----13p10----13p10----|
|-------12-------12-------12-------12-------12-|
|----------------------------------------------|
|----------------------------------------------|
|----------------------------------------------|


  F
   S  S  S  S  S  S  S  S  +Q    +E.  S
|-13p12----13p12----13------------------|
|-------13-------13----13-(13)--(13)-13-|
|---------------------------------------|
|---------------------------------------|
|---------------------------------------|
|---------------------------------------|
|
|  S  S  S  S  S  S  S  S  +Q    +E.  S
|---------------------------------------|
|-13p10----13p10----13p10-(10)--(10)--0-|
|-------12-------12---------------------|
|---------------------------------------|
|---------------------------------------|
|---------------------------------------|


  C
   S  S  S  S  S  S  S  S  S  S  S  S  S  S  E
|-15p12----15p12----15p12----15p12----15p12----|
|-------13-------13-------13-------13-------13-|
|----------------------------------------------|
|----------------------------------------------|
|----------------------------------------------|
|----------------------------------------------|
|
|                                            ~~
|  S  S  S  S  S  S  S  S  S  S  S  S  S  S  E
|----------------------------------------------|
|-15p13----15p13----15p13----15p13----15p13----|
|-------14-------14-------14-------14-------14-|
|----------------------------------------------|
|----------------------------------------------|
|----------------------------------------------|


  F
                        ~~~~~~~
   S  S  S  S  S  S  S  S  +Q     E.  S
|-15p12----15p12----15p12-(12)---12--12-|
|-------13-------13---------------------|
|---------------------------------------|
|---------------------------------------|
|---------------------------------------|
|---------------------------------------|
|
|  S  S  S  S  S  S  S  S  +Q    +E.  S
|---------------------------------------|
|-15p13----15p13----15p13-(13)--(13)--x-|
|-------14-------14---------------------|
|---------------------------------------|
|---------------------------------------|
|---------------------------------------|


  C
                                             ~~
   S  S  S  S  S  S  S  S  S  S  S  S  S  S  E
|-20p17----20p17----20p17----20p17----20p17----|
|-------20-------20-------20-------20-------20-|
|----------------------------------------------|
|----------------------------------------------|
|----------------------------------------------|
|----------------------------------------------|
|
|                                            ~~
|  S  S  S  S  S  S  S  S  S  S  S  S  S  S  E
|-15p12----15p12----15p12----15p12----15p12----|
|-------13-------13-------13-------13-------13-|
|----------------------------------------------|
|----------------------------------------------|
|----------------------------------------------|
|----------------------------------------------|


  F
                        ~~~~~~~~~~~~~~
   S  S  S  S  S  S  S  S  +Q     Q
|-20p17----20p17----20-----------------|
|-------20-------20----20-(20)--(20)\--|
|--------------------------------------|
|--------------------------------------|
|--------------------------------------|
|--------------------------------------|
|
|                       ~~~~~~~~~~~~~~
|  S  S  S  S  S  S  S  S  +Q     Q
|-15p12----15p12----15-12-(12)--(12)\--|
|-------13-------13--------------------|
|--------------------------------------|
|--------------------------------------|
|--------------------------------------|
|--------------------------------------|


  Q=46
  E E  E E E  E  E E     S  S  S  S  S  S  S  S T  T  E.  +Q
|---------------------|-------------20-19-17-------------------*|
|---------------------|-------17-20----------17----------------*|
|--------7-9-10-12-9/-|-14-17-------------------3h17p16--(16)--*|
|-7-9-10--------------|----------------------------------------*|
|---------------------|----------------------------------------*|
|---------------------|----------------------------------------*|
|
|                        ~~
| E E  E E E  E  E E     W
|---------------------|----------------------------------------*|
|---------------------|----------------------------------------*|
|--------7h9-10-12-9/-|-14-------------------------------------*|
|-7h9-10--------------|----------------------------------------*|
|---------------------|----------------------------------------*|
|---------------------|----------------------------------------*|


Duration Legend
---------------
W - whole; H - half; Q - quarter; E - 8th; S - 16th; T - 32nd; X - 64th; a - acciaccatura
+ - note tied to previous; . - note dotted; .. - note double dotted
Uncapitalized letters represent notes that are staccato (1/2 duration)
Irregular groupings are notated above the duration line
Duration letters will always appear directly above the note/fret number it represents the
duration for.  Duration letters with no fret number below them represent rests.  Multi-
bar rests are notated in the form Wxn, where n is the number of bars to rest for.  Low
melody durations appear below the staff

Tablature Legend
----------------
 h   - hammer-on
 p   - pull-off
 b   - bend
 pb  - pre-bend
 r   - bend release (if no number after the r, then release immediately)
 /\  - slide into or out of (from/to "nowhere")
 s   - legato slide
 S   - shift slide
  - natural harmonic
[n]  - artificial harmonic
n(n) - tapped harmonic
 ~   - vibrato
 tr  - trill
 T   - tap
 TP  - trem. picking
 PM  - palm muting
\n/  - tremolo bar dip; n = amount to dip
 \n  - tremolo bar down
 n/  - tremolo bar up
/n\  - tremolo bar inverted dip
 =   - hold bend; also acts as connecting device for hammers/pulls
   - volume swell (louder/softer)
 x   - on rhythm slash represents muted slash
 o   - on rhythm slash represents single note slash

Misc Legend
-----------
 |  - bar
||  - double bar
||o - repeat start
o|| - repeat end
*|  - double bar (ending)
 :  - bar (freetime)
 $  - Segno
 &  - Coda
Tempo markers -  = BPM(8/16=s8/s16), where s8 = swing 8ths, s16 = swing 16ths


***************************************************************************************
* Generated using Power Tab Editor by Brad Larsen - http://powertab.guitarnetwork.org *
***************************************************************************************
Comments