Thin Lizzy - Parisienne Walkways Chords & Tabs

 

Parisienne Walkways Chords & Tabs

Thin Lizzy Chords & Tabs

Version: 2 Type: Bass Tab 0 ratings
1 star 2 stars 3 stars 4 stars 5 stars
comments

Parisienne Walkways Bass Tab

Parisienne Walkways - Thin Lizzy 
===========================================
Tabbed by Dara Canny (hellcourt@hotmail.com)

This is my 2nd thin lizzy song to tab out. 
If anyone else out there has any other thin lizzy bass 
tabs please mail 'em to me. Thx. 

Tuning : Standard

G |----------------------------------------------------------|
D |-------------2-3-5-5-5-3-----0-2-3-3-3-2-----1-2-2--------|
A |-0-0-2-3-5-5-------------3-3-------------2-2-------0------|
E |----------------------------------------------------------|
[ Tab from: http://www.guitartabs.cc/tabs/t/thin_lizzy/parisienne_walkways_btab_ver_2.html ]
G |----------------------------------------------------------|
D |-------------2-3-5-5-5-3-----0-2-3-3-3-2---1-2------------|
A |-0-0-2-3-5-5-------------3-3-------------2-----0-0-0------|
E |----------------------------------------------------------|

G |----------------------------------------------------------|
D |-0-0-2-3-5-5-5-3-----0-2-3-3-3-2-----1-2-2----------------|
A |-----------------3-3-------------2-2-------0-0-0----------|
E |----------------------------------------------------------|

G |----------------------------------------------------------|
D |-0-0-2-3-5-5-5-3-----0-2-3-3-3-2---------1-1-2-3-2--------|
A |-----------------3-3-------------2-2-2-2------------------|
E |----------------------------------------------------------|

G |---------------------------------------|------------------|
D |-0-0-2-3-5-5-5-3-----0-2-3-3-3-2---1-2-|-----7\3-2--------|
A |-----------------3-3-------------2-----|-0-5--------------|
E |---------------------------------------|------------------|
					   (repeat until end)
Comments