Thin Lizzy - Jailbreak Chords & Tabs

 

Jailbreak Chords & Tabs

Thin Lizzy Chords & Tabs

Version: 4 Type: Tab 0 ratings
1 star 2 stars 3 stars 4 stars 5 stars
comments

Jailbreak Tab

Matt John
Thin Lizzy - Jailbreak


No ones done a proper tab for this its all been slightly wrong hopefully this is right
This is just the first half i will post the second as soon as i can
[ Tab from: http://www.guitartabs.cc/tabs/t/thin_lizzy/jailbreak_tab_ver_4.html ]
Main Riff
E -----------------------
B -----------------------
G -----------------------
D -7---2-44--2-2-4-2-----
A -7---2-44--2-2-4-2-----
E -5-0-0-22--0-0-2-0-----

Chorus

G -----------9-9-9-9----
D --9-9-9-9--9-9-9-9----
A --9-9-9-9--7-7-7-7----
E --7-7-7-7-------------  Just repeat this bit a few times

Post Chorus
D -----2------------
A ---4-------------- 
E -5-----4-0-2------ Bend 2 alot
Comments