Thin Lizzy - Jailbreak Chords & Tabs

 

Jailbreak Chords & Tabs

Thin Lizzy Chords & Tabs

Version: 3 Type: Tab 0 ratings
1 star 2 stars 3 stars 4 stars 5 stars
comments

Jailbreak Tab

   
e -
b -15/17r---------------------------------------------------
g ----------------------------------------------------------
d ----------2-----------------------------------------------
a ----------0--2-----4--4--------2--2--4-----2---2------4--4
e -------------0--0--2--2-----0--0--0--2--0--0---0---0--2--2  
[ Tab from: http://www.guitartabs.cc/tabs/t/thin_lizzy/jailbreak_tab_ver_3.html ]
e -----------------------------------------------------------------
b------------------------------------------------------------------
g -----------------------------------------------------------------
d ----------------2---------------------------------2--------------
a ----2--2--4-----0---2------4--4------2--2--4------0---2------4--4
e -0--0--0--2--0------0---0--2--2---0--0--0--2--0-------0---0--2--2

e
b
g
d
a ------2--2--4---- repeat 2 more times
e ---0--0--0--2----
Comments