Thin Lizzy - Jailbreak Chords & Tabs

 

Jailbreak Chords & Tabs

Thin Lizzy Chords & Tabs

Version: 1 Type: Tab 0 ratings
1 star 2 stars 3 stars 4 stars 5 stars
comments

Jailbreak Tab

   
#----------------------------------PLEASE NOTE---------------------------------#
#This file is the author's own work and represents their interpretation of the #
#song. You may only use this file for private study, scholarship, or research. #
#------------------------------------------------------------------------------##

Song name:Jailbreak
Band Name:Thin Lizzy
Tabbed by:John

Verse
----------------------------------------------------
----------------------------------------------------
----------------------------------------------------
--2-------------------------------------------------
--0--2--0--4-4-2-4-4-2-4----------------------------
-----0--0--2-2-0-2-2-0-2----------------------------

Chours
----------------------------------------------------
----------------------------------------------------
-4-4-0----4-4-4--0----------------------------------
-4-4-0-2--4-4-4--0--2-------------------------------
-2-2-0-2--2-2-2--0--2-------------------------------
-------0------------0-------------------------------

Interlude
----------------------------------------------------
----------------------------------------------------
----------------------------------------------------
----------6------7-------8-------9------------------
--7--7--7---7--7----7--7---7--7----7----------------
----------------------------------------------------

Then
----------------------------------------------------
----------------------------------------------------
----------------------------------------------------
----------------------------------------------------
-0-0-0-4-0-0-5-0-0-6-0-0-7-0-0----------------------
----------------------------------------------------

Then
----------------------------------------------------
----------------------------------------------------
----------------------------------------------------
--------6-----7-----8-----9-------------------------
--7-7-7---7-7---7-7---7-7---7-----------------------
----------------------------------------------------

Then
---------------------------------------------------
--------------------------9------------------------
--------6-----7-----8-----9------------------------
---------------------------------------------------
--7-7-7---7-7---7-7---7-7--------------------------
---------------------------------------------------

[ Tab from: http://www.guitartabs.cc/tabs/t/thin_lizzy/jailbreak_tab.html ]
#----------------------------------PLEASE NOTE---------------------------------#
#This file is the author's own work and represents their interpretation of the #
#song. You may only use this file for private study, scholarship, or research. #
#------------------------------------------------------------------------------#
Fighting My Way Back - THIN LIZZY 
tabbed by sgorhamrocks@yahoo.com

guitar tab
----------

 Intro: Repeat x3 I think listen to the song to figure out the pattern
E|------------------------------------------|
B|------------------------------------------|
D|------------------------------------------|
G|-----7-7-7-7---7--7-7-7-------------------|
A|-----6-6-6-6------8---8-------------------|
E|------------------------------------------|

 Verses: 
E|-----------------------------------------------|
B|-----------------------------------------------|
D|-----------8-8---------------------------------|
G|-----8--7--------------------------------------|
A|-----7--8--------------------------------------|
E|-----------------------------------------------|

this all I got so far I'm still working on the guitar solo


#----------------------------------PLEASE NOTE---------------------------------#
#This file is the author's own work and represents their interpretation of the #
#song. You may only use this file for private study, scholarship, or research. #
#------------------------------------------------------------------------------#
Thin Lizzy: Holy War

Intro:

e----------------------------------------------------------------------------------
B----------------------------------------------------------------------------------
G-11-11-9-9---------------------------------9-9-----------------------------------
D-----------12-12-11-11-9-9---------------------12-12-11-11-9-9--------------------
A---------------------------12-12-11-11-9-9---------------------12-12-11-11-9-9----
E-------------------------------------------------------------------------------12-

e------------------------------------------------------------
B------------------------------------------------------------i'm not really sure
G---------------------------------------9----9h11-11-12-11-9-about the end of this
D---------------9----9h11-9h11h12-11h12---12-----------------part: too fast for me
A-9h11h12-11h12---12-----------------------------------------
E------------------------------------------------------------

Verse:
e---------------------------------
B-7-----10-7-----10-7-------------
G-6-7-9-9--6-7-9-9--6-7-9-6-7-6---
D-4-7-9-7--4-7-9-7--4-7-9-6-7-6-4-
A---5-7------5-7------5-7-4-5-4-4-
E-------------------------------2-

Chorus:
e-------------------------------
B-------------------------------
G-------6-------6-7-4-6-6-------
D-4-6-7-6-4-6-7-6-7-4-6-6-4-6-7-
A-4-6-7-4-4-6-7-4-5-2-4-4-4-6-7-
E-2-4-5---2-4-5-----------2-4-5-
Comments