Thin Lizzy - Fighting My Way Back Chords & Tabs

 

Fighting My Way Back Chords & Tabs

Thin Lizzy Chords & Tabs

Version: 2 Type: Tab 0 ratings
1 star 2 stars 3 stars 4 stars 5 stars
comments

Fighting My Way Back Tab

   
The previous version of this was actually painful to hear yourself
play and was just wrong.And now with solo!
Tabbed by : Bern Redman bern_71@hotmail.com
Tuning: Tuned down to Eb

 /  slide up
 \  slide down
 h  hammer-on
 p  pull-off
 ~  vibrato
 +  harmonic
 x  Mute note

Intro

Eb----------------------------------------------------------------|
Bb----------------------------------------------------------------|
Gb----------------------------------------------------------------|
Db-22222-44-2-22222-44-2-22222-44-2-22222-2-44--------------------|
Ab-22222-22-0-22222-22-0-22222-22-0-22222-0-22--------------------|
Eb-00000------00000------00000------00000-------------------------|

Verse play 4 times

Eb----------------------------------------------------------------|
Bb----------------------------------------------------------------|
Gb----------------------------------------------------------------|
Db--------------7-6----------6------------------------------------|
Ab------7-----7-----9-9-77-9--------------------------------------|
Eb--7-9---9-9-----------------------------------------------------|

Chorus 1

Eb----------------------------------------------------------------|
Bb----------------------------------------------------------------|
Gb----------------------------------------------------------------|
Db-99999--------99999-77-7\5-5-99999------99999-------------------|
Ab-77777-99--7--77777-77-7\5-5-77777-99-7-77777--7-99-------------|
Eb-------77--5--------55-------------77-5--------5-77-------------|

Verse play 4 times

Eb----------------------------------------------------------------|
Bb----------------------------------------------------------------|
Gb----------------------------------------------------------------|
Db--------------7-6----------6------------------------------------|
Ab------7-----7-----9-9-77-9--------------------------------------|
Eb--7-9---9-9-----------------------------------------------------|

Chorus 2

Eb----------------------------------------------------------------|
Bb----------------------------------------------------------------|
Gb----------------------------------------------------------------|
Db-99999--------99999-77-7\5-5-99999------99999-------------------|
Ab-77777-99--7--77777-77-7\5-5-77777-99-7-77777--7-99-------------|
Eb-------77--5--------55-------------77-5--------5-77-------------|

Verse under solo play 8 times (solo fits in over this)

Eb----------------------------------------------------------------|
Bb----------------------------------------------------------------|
Gb----------------------------------------------------------------|
Db--------------7-6----------6------------------------------------|
Ab------7-----7-----9-9-77-9--------------------------------------|
Eb--7-9---9-9-----------------------------------------------------|

Chorus 3

Eb----------------------------------------------------------------|
Bb----------------------------------------------------------------|
Gb----------------------------------------------------------------|
Db-99999--------99999-77-7\5-5-99999------99999-------------------|
Ab-77777-99--7--77777-77-7\5-5-77777-99-7-77777--7-99-------------|
Eb-------77--5--------55-------------77-5--------5-77-------------|

Bridge play 4 times

Eb----------------------------------------------------------------|
Bb----------------------------------------------------------------|
Gb----------------------------------------------------------------|
Db----------------------------------------------------------------|
Ab-----2-3-3p2-----3-5--3p2---------------------------------------|
Eb-3-3---------5-5------------------------------------------------|

Chorus 4

Eb----------------------------------------------------------------|
Bb----------------------------------------------------------------|
Gb----------------------------------------------------------------|
Db-99999--------99999-77-7\5-5-99999------99999-------------------|
Ab-77777-99--7--77777-77-7\5-5-77777-99-7-77777--7-99-------------|
Eb-------77--5--------55-------------77-5--------5-77-------------|
[ Tab from: http://www.guitartabs.cc/tabs/t/thin_lizzy/fighting_my_way_back_tab_ver_2.html ]
Eb----------------------------------------------------------------|
Bb----------------------------------------------------------------|
Gb----------------------------------------------------------------|
Db-22222-44-2-22222-44-2-22222-44-2-22222-2-44--------------------|
Ab-22222-22-0-22222-22-0-22222-22-0-22222-0-22--------------------|
Eb-00000------00000------00000------00000-------------------------|

Verse play 4 times

Eb----------------------------------------------------------------|
Bb----------------------------------------------------------------|
Gb----------------------------------------------------------------|
Db--------------7-6----------6------------------------------------|
Ab------7-----7-----9-9-77-9--------------------------------------|
Eb--7-9---9-9-----------------------------------------------------|

Chorus 5

Eb----------------------------------------------------------------|
Bb----------------------------------------------------------------|
Gb----------------------------------------------------------------|
Db-99999--------99999-77-7\5-5-99999------99999-----------99999---|
Ab-77777-99--7--77777-77-7\5-5-77777-99-7-77777--7-99-99--77777---|
Eb-------77--5--------55-------------77-5--------5-77-77----------|

                                END
^^^^^^^^^^^^^^^^^^^^^^^^^^^^^^^^^^^^^^^^^^^^^^^^^^^^^^^^^^^^^^^^^^

SOLO!

Eb-------------------------------------------------12-12p9---------|
Bb--------------------------------------------9-12---------12-12p9-|
Gb-------9-------9-11b13b11p9------11p9-11b13----------------------|
Db--9h11---11-11--------------11p9---------------------------------|
Ab-----------------------------------------------------------------|
Eb-----------------------------------------------------------------|

Eb----------9-----------------------12b13b12p9-9-------------------|
Bb----12b14---14b12p9------12p9-9~~~--------------12p9-12p9-9----9-|
Gb-11-----------------11p9------------------------------------11---|
Db-----------------------------------------------------------------|
Ab-----------------------------------------------------------------|
Eb-----------------------------------------------------------------|

Eb--------------14b16b14p12-12p9-12p9---------------12------------|
Bb-12b14-12-12------------------------12p9-------12----12p9-12p9--|
Gb-----------------------------------------11b13------------------|
Db----------------------------------------------------------------|
Ab----------------------------------------------------------------|
Eb----------------------------------------------------------------|

Eb----------------------------------------------------------------|
Bb----------------------------------------------------------------|
Gb-11b13b11~~------9----9h11p9----11-9h11p9----9--11b13b11p9------|
Db------------9h11---11--------11-----------11---------------11p9-|
Ab----------------------------------------------------------------|
Eb----------------------------------------------------------------|

               <-----mute this part--------------------------------|
Eb-----------------------------------------------------------------|
Bb------------------------------------------------------9----------|
Gb--11p9-------------------------------9--------11p9-11---11p9-----|
Db-------11p9----------9-------11-9-------11-9---------------------|
Ab-------------11-9------11-9-------11-----------------------------|
Eb------------------12---------------------------------------------|

Eb----------9--12p9-9-12b14-12-9-12-9-----14b16-14-12-14-14p12\9--|
Bb-12p9--12---------------------------12--------------------------|
Gb----------------------------------------------------------------|
Db----------------------------------------------------------------|
Ab----------------------------------------------------------------|
Eb----------------------------------------------------------------|

Eb--11b12-11b12b11p9------9----------------12---------------------|
Bb-------------------12p9---12-11b12-11b14----14b11p9-12p9--------|
Gb----------------------------------------------------------------|
Db----------------------------------------------------------------|
Ab----------------------------------------------------------------|
Eb----------------------------------------------------------------|


Eb----------------------------------------------------------------|
Bb----------------------------------------------------------------|
Gb-11b13b11~~-9----11----9~~~~~-----------------------------------|
Db--------------11----11------------------------------------------|
Ab----------------------------------------------------------------|
Eb----------------------------------------------------------------|
Comments