Thin Lizzy - Dancing In The Moonlight Chords & Tabs

 

Thin Lizzy Chords & Tabs

Version: 1 Type: Tab 0 ratings
1 star 2 stars 3 stars 4 stars 5 stars
comments

Dancing In The Moonlight Tab

#----------------------------------PLEASE NOTE---------------------------------#
#This file is the author's own work and represents their interpretation of the #
#song. You may only use this file for private study, scholarship, or research. #
#------------------------------------------------------------------------------##
From: jam_farmer@hotmail.com
Subject: TAB : Dancin' in the Moonlight - Thin Lizzy
Corrections/Alternatives/Additions welcome


Key of E

[Bass Intro]
G:---------------------------------------|----------------------------------|
D:-------------2-----2--2------------2---|----------------------------------|
A:-2--2--5--5---------------5--2--5------|---2--2--5--5--3--3-----2---------|
E:---------------------------------------|---------------------------5--3---|

On 'Live and Dangerous' this is also played on the guitar at the beginning


  Em7		   D		   C		       (1st time)           (2nd Time)
e--7----7--7----7--5----5--5----5--3----3--3----3--I--------------------I------------------I
B--8----8--8----8--7----7--7----7--5----5--5----5--I--12-13-(12)-15-13--I--17-13-12h13p12--I
G--7----7--7----7--7----7--7----7--5----5--5----5--I--12-14-(12)-14-14--I--17-14-12h14p12--I
D--9----9--9----9--7----7--7----7--5----5--5----5--I--------------------I------------------I
A--7----7--7----7--5----5--5----5--3----3--3----3--I--------------------I------------------I
E--------------------------------------------------I--------------------I------------------I
Play this for the verses and play Em7 D C G B for the chorus

[ Tab from: http://www.guitartabs.cc/tabs/t/thin_lizzy/dancing_in_the_moonlight_tab.html ]
[Solo]
e:---------------------------------------------------------------------|
B:-------15b(17)-----b(17)15--12--15b(17)-----b(17)15--12--------------|
G:---------------------------------------------------------------------|
D:---------------------------------------------------------------------|
A:---------------------------------------------------------------------|
E:---------------------------------------------------------------------|


e:---------------------------------------------------------------------|
B:-15b(17)--15--12-----------------------------------------------------|
G:----------------------12------12---14--12--14b(16)--14h12--14b(16)---|
D:------------------14------14-----------------------------------------|
A:---------------------------------------------------------------------|
E:---------------------------------------------------------------------|

				(Play along to the CD for the timing of this part)
e:---------------------------------12--10--8--7--7s8s10--12------------|
B:---------------------------------------------------------------------|
G:---------------14-12----12-14-----9---7--5--4--4s5s7--- 9------------|
D:--------14-12--------14----------------------------------------------|
A:--12-14--------------------------------------------------------------|
E:---------------------------------------------------------------------|


e:----------12--15p12----12--------I
B:----------12--------15----15-12--I
G:--14b(16)------------------------I  X 3
D:---------------------------------I
A:---------------------------------I
E:---------------------------------I


e:----------12--15p12----12-----------------------------------15-17b(19)-17p15--I
B-----------12--------15----15-12--12------------------15p12--------------------I
G:--14b(16)-----------------------------12------14p12---------------------------I
D:------------------------------------------14----------------------------------I
A:------------------------------------------------------------------------------I
E:------------------------------------------------------------------------------I
On Live and dangerous it goes from here back to D C G B and the to the Em7 D C part
Comments