Thin Lizzy - Cowboy Song Chords & Tabs

 

Cowboy Song Chords & Tabs

Thin Lizzy Chords & Tabs

Version: 4 Type: Tab 0 ratings
1 star 2 stars 3 stars 4 stars 5 stars
comments

Cowboy Song Tab

This is the first solo from the live version hope u like it

e---------------------------------------------------------------------------|
b------------------------------------------------17b--17-15-------15--------|
g-------15----------15--17b-17b-17p15----15----------------17-17b----17p15--|
d-15-17---17---15-17-----------------h17------------------------------------|
a---------------------------------------------------------------------------|
E---------------------------------------------------------------------------|


e---------------------------------------------------------------------------|
b---------------------------------------------------------------------------|
g-----15----------15h17---13h15---11h13---10h12---10------------------------|
d--17-------------------------------------------------12-10------10--12-----|
a------------------------------------------------------------12-------------|
E---------------------------------------------------------------------------|
[ Tab from: http://www.guitartabs.cc/tabs/t/thin_lizzy/cowboy_song_tab_ver_4.html ]
e--------------------------------------------------15---17b-17b--17--15---15-|
b-------------------------------------------15h17-----------------------17---|
g---------14-16-16b--16--14-----14----14h16----------------------------------|
d--12/16--------------------16-----------------------------------------------|
a----------------------------------------------------------------------------|
E----------------------------------------------------------------------------|


e---------------------------------------------------------------------------|
b--17-----17--15--17--15----------------------------------------------------|
g-------------------------17--15---------17b--17b--17b----------------------|
d---------------------------------17----------------------------------------|
a---------------------------------------------------------------------------|
E---------------------------------------------------------------------------|

e------------------------------------|
b---------12h14----12h14--12---------|
g--12h14-----------------------------|
d------------------------------------|      x2
a------------------------------------|
E------------------------------------|

e--------------------------------------------------------------|
b---------12h14----12h14--12-----------------------------------|
g--12h14-------------------------14--12--14---10/14------------|
d--------------------------------------------------------------|
a--------------------------------------------------------------|
E--------------------------------------------------------------|


Then back to the chorus riff and so on. I would have tabbed the rest of the song but 
is at least one good version already been done and to be honest i didnt want to. Have Fun, Dan.
Comments