Thin Lizzy - Cowboy Song Chords & Tabs

 

Cowboy Song Chords & Tabs

Thin Lizzy Chords & Tabs

Version: 1 Type: Bass Tab 0 ratings
1 star 2 stars 3 stars 4 stars 5 stars
comments

Cowboy Song Bass Tab

To play along to the record play this in Eb


Intro
G--2------------------------------2-----4--2---6-----------------------------------|
D---------2-----2--4-----2---0------------------------7--6---4----4--2--0----------|
A----------------------------------------------------------------------------------|
E----------------------------------------------------------------------------------|

G----------------------------------------------------------------------------------|
D--------------------------------------4---4--2---0-----7--7-----------------------|
A--0-----------------5-----0-------------------------------------------------------|
E--------0-----2-----------------4-------------------------------------------------|

Chorus
G----------------------------------------------------------------------------------|
D-------7--------7--7-----7--------7--7-----------------------7--7-----------------|
A----5-----5--5--------4-----4--4--------2--2--0--------0--------------------------|
E-------------------------------------------------2--0-----------------------------|x2

Verse
G--2--2--2-----2-------------------------------------------------------------------|
D-----------4-----2--2--2--2-----2--4--4--4--4--4--4---2---0-----------------------|
A-----------------------------4----------------------------------------------------|
E----------------------------------------------------------------------------------|

G--------------2--2--2-----2--1--1--1--1--1--2-------------------------------------|
D--0--0--0--0-----------4-----------------------2--4--4--4--4---2---0--------------|
A----------------------------------------------------------------------------------|
E----------------------------------------------------------------------------------|

G-----------------------2--2--2--4--2----------------------------------------------|
D--0--0--0--0-----0--2-----------------2--2--2--2-----2--4--4--4--4---2---0--------|
A--------------2-----------------------------------4-------------------------------|
E----------------------------------------------------------------------------------|

G-----------------------2--2--2--4--1--1--1--1--1--2-------------------------------|
D--0--0--0--0-----0--2--------------------------------2--4--4--4--4---2---0--7--7--|
A--------------2-------------------------------------------------------------------|
E----------------------------------------------------------------------------------|

Chorus
G----------------------------------------------------------------------------------|
D-------7--------7--7-----7--------7--7-----------------------7--7-----------------|
A----5-----5--5--------4-----4--4--------2--2--0--------0--------------------------|
E-------------------------------------------------2--0-----------------------------|x2

Verse
G--2--2--2-----2-------------------------------------------------------------------|
D-----------4-----2--2--2--2-----2--4--4--4--4--4--4---2---0-----------------------|
A-----------------------------4----------------------------------------------------|
E----------------------------------------------------------------------------------|

G--------------2--2--2-----2--1--1--1--1--1--2-------------------------------------|
D--0--0--0--0-----------4-----------------------2--4--4--4--4---2---0--------------|
A----------------------------------------------------------------------------------|
E----------------------------------------------------------------------------------|

G-----------------------2--2--2--4--2----------------------------------------------|
D--0--0--0--0-----0--2-----------------2--2--2--2-----2--4--4--4--4---2---0--------|
A--------------2-----------------------------------4-------------------------------|
E----------------------------------------------------------------------------------|

G-----------------------2--2--2--4--1--1--1--1--1--2-------------------------------|
D--0--0--0--0-----0--2--------------------------------2--4--4--4--4---2---0--7--7--|
A--------------2-------------------------------------------------------------------|
E----------------------------------------------------------------------------------|
[ Tab from: http://www.guitartabs.cc/tabs/t/thin_lizzy/cowboy_song_btab.html ]
Chorus
G----------------------------------------------------------------------------------|
D-------7--------7--7-----7--------7--7-----------------------7--7-----------------|
A----5-----5--5--------4-----4--4--------2--2--0--------0--------------------------|
E-------------------------------------------------2--0-----------------------------|x2

Verse (Played behind guitar solo 1)
G--2--2--2-----2-------------------------------------------------------------------|
D-----------4-----2--2--2--2-----2--4--4--4--4--4--4---2---0-----------------------|
A-----------------------------4----------------------------------------------------|
E----------------------------------------------------------------------------------|

G--------------2--2--2-----2--1--1--1--1--1--2-------------------------------------|
D--0--0--0--0-----------4-----------------------2--4--4--4--4---2---0--------------|
A----------------------------------------------------------------------------------|
E----------------------------------------------------------------------------------|

G-----------------------2--2--2--4--2----------------------------------------------|
D--0--0--0--0-----0--2-----------------2--2--2--2-----2--4--4--4--4---2---0--------|
A--------------2-----------------------------------4-------------------------------|
E----------------------------------------------------------------------------------|

G-----------------------2--2--2--4--1--1--1--1--1--2-------------------------------|
D--0--0--0--0-----0--2--------------------------------2--4--4--4--4---2---0--7--7--|
A--------------2-------------------------------------------------------------------|
E----------------------------------------------------------------------------------|

Chorus
G----------------------------------------------------------------------------------|
D-------7--------7--7-----7--------7--7-----------------------7--7-----------------|
A----5-----5--5--------4-----4--4--------2--2--0--------0--------------------------|
E-------------------------------------------------2--0-----------------------------|x2

interlude
G----------------------------------------------------------------------------------|
D-------7--------7--7-----7--------7--7-----------------------7--7-----------------|
A----5-----5--5--------4-----4--4--------2--2--0--------0--------------------------|
E-------------------------------------------------2--0-----------------------------|x10

Verse (Played behind guitar solo 2)
G--2--2--2-----2-------------------------------------------------------------------|
D-----------4-----2--2--2--2-----2--4--4--4--4--4--4---2---0-----------------------|
A-----------------------------4----------------------------------------------------|
E----------------------------------------------------------------------------------|

G--------------2--2--2-----2--1--1--1--1--1--2-------------------------------------|
D--0--0--0--0-----------4-----------------------2--4--4--4--4---2---0--------------|
A----------------------------------------------------------------------------------|
E----------------------------------------------------------------------------------|

G-----------------------2--2--2--4--2----------------------------------------------|
D--0--0--0--0-----0--2-----------------2--2--2--2-----2--4--4--4--4---2---0--------|
A--------------2-----------------------------------4-------------------------------|
E----------------------------------------------------------------------------------|

G-----------------------2--2--2--4--1--1--1--1--1--2-------------------------------|
D--0--0--0--0-----0--2--------------------------------2--4--4--4--4---2---0--7--7--|
A--------------2-------------------------------------------------------------------|
E----------------------------------------------------------------------------------|

Chorus
G----------------------------------------------------------------------------------|
D-------7--------7--7-----7--------7--7-----------------------7--7-----------------|
A----5-----5--5--------4-----4--4--------2--2--0--------0--------------------------|
E-------------------------------------------------2--0-----------------------------|x3
Comments