Thin Lizzy - Boys Are Back In Town Chords & Tabs

 

Boys Are Back In Town Chords & Tabs

Thin Lizzy Chords & Tabs

Version: 2 Type: Bass Tab 0 ratings
1 star 2 stars 3 stars 4 stars 5 stars
comments

Boys Are Back In Town Bass Tab

            Thin Lizzy - "Boys Are Back In Town" - Bass Tab

Intro:

|----------|---------------|---------|----------|
|*---------|-3-3-1---1-3-R-|---------|---------*|
|*---------|-------3-------|-1-------|-4-------*|(x4)
|--4-------|---------------|---------|----------|
   1 2 3 4   1 & 2 & 3 & 4   1 2 3 4   1 2 3 4

Verse:

|-----------|-----------|---------|---------|-------------|
|-----------|-----------|-----6-4-|-3-----3-|---5-3-------|
|-----------|-3-3-3-3-3-|-4-7-----|---------|-3-----5-3---|
|-4-4-4-4-4-|-----------|---------|---------|-----------3-|
  1 2 3 4 &   1 2 3 4 &   1 2 3 4   1 2 3 4   1 2 3 & 4 &

|-----------|---------|-------------|-------------|-------------|
|-----------|-------3-|-1-1-3-1-----|-------------|-------------|
|---------3-|-1-3-4---|---------3-1-|-------------|-3-3-3-3-3-3-|
|-1-1-1-3---|---------|-------------|-4-4-4-4-4-4-|-------------|
  1 2 3 4 &   1 2 3 4   1 2 3 & 4 &   1 2 3 & 4 &   1 2 3 & 4 &

|---------|---------|-------------|-------------|---------|
|-----6-4-|-3-----3-|-------------|-------------|-------3-|
|-4-7-----|---------|-3-3-3-3-3-3-|-----------3-|-1-3-4---|
|---------|---------|-------------|-1-1-1-1-3---|---------|
  1 2 3 4   1 2 3 4   1 2 3 & 4 &   1 2 3 & 4 &   1 2 3 4

|-------------|
|-1-1-3-1-----|
|---------3-1-|
|-------------|
  1 2 3 & 4 &

Chorus:

|--------------|-------------|-------------|--------------|
|*-------------|-------------|-------------|-------------*|
|*-------------|-------------|-------------|-4-4-4-4-4-4-*|(x3)
|--4-4-4-4-4-4-|-4-4-4-4-4-4-|-6-6-6-6-6-6-|--------------|
   1 2 3 & 4 &   1 2 3 & 4 &   1 2 3 & 4 &   1 2 3 & 4 &

|--------------|-------------|-------------|----------------|
|*-------------|-------------|-------------|---------------*|
|*-------------|-------------|-3-3-3-3-3-3-|-4-4-4-6-6-4-3-*|(x2)
|--4-4-4-4-4-4-|-6-6-6-6-6-6-|-------------|----------------|
   1 2 3 & 4 &   1 2 3 & 4 &   1 2 3 & 4 &   1 2 & 3 & 4 &

After-Chorus:
[ Tab from: http://www.guitartabs.cc/tabs/t/thin_lizzy/boys_are_back_in_town_btab_ver_2.html ]
|----------------------------------|---------|---------|
|*-4-4-4-4-4-4-4-4-----------------|---------|---------|
|*-----------------4-4-4-4-4-4-4-4-|-3-----3-|---------|
|----------------------------------|---------|-1-----1-|
   1 e & a 2 e & a 1 e & a 3 e & a   1 2 3 4   1 2 3 4 
			  _____      ____	
			 |1.	     |2. 
|---------|---------|----------|---------|
|-------3-|-1-1-1-1-|-3-------*|---------|
|-1-3-4---|---------|---------*|---------|
|---------|---------|----------|-1-------|
  1 2 3 4   1 2 3 4   1 2 3 4    1 2 3 4

Last Chorus:

|--------------|-------------|-------------|--------------|
|*-------------|-------------|-------------|-------------*|
|*-------------|-------------|-------------|-4-4-4-4-4-4-*|(x2)
|--4-4-4-4-4-4-|-4-4-4-4-4-4-|-6-6-6-6-6-6-|--------------|
   1 2 3 & 4 &   1 2 3 & 4 &   1 2 3 & 4 &   1 2 3 & 4 &

|----------|---------|---------|----------|
|*---------|---------|---------|---------*|
|*---------|---------|---------|-4-------*|(x2)
|--4-------|-4-------|-6-------|----------|
   1 2 3 4   1 2 3 4   1 2 3 4   1 2 3 4 

Solo:

|------------------|-----------------|-----------------|
|*-----------------|-----------------|-----------------|
|*-------3-4-6-----|-------3-4-6-----|-------1-2-4-----|
|--4---4---------0-|-4---4---------0-|-2---2---------0-|
   1 & a 2 3 4 & a   1 & a 2 3 4 & a   1 & a 2 3 4 & a

|-----------------|-----------------|-----------------|
|-----------------|-----------------|-----------------|
|-------3-1-------|-------1-2-4-----|-------3-1-------|
|-1---1-----4---0-|-2---2---------0-|-1---1-----4---0-|
  1 & a 2 3 4 & a   1 & a 2 3 4 & a   1 & a 2 3 4 & a

|---------|----------|
|---------|---------*|
|-4-------|-6-------*|(x2)
|---------|----------|
  1 2 3 4   1 2 3 4

|--------------|-------------|-------------|----------------|
|*-------------|-------------|-------------|---------------*|
|*-------------|-------------|-3-3-3-3-3-3-|-4-4-4-6-6-4-3-*|
|--4-4-4-4-4-4-|-6-6-6-6-6-6-|-------------|----------------|
   1 2 3 & 4 &   1 2 3 & 4 &   1 2 3 & 4 &   1 2 & 3 & 4 &

Song Structure:

Intro
Verse
Chorus
Verse
Chorus
After-Chorus
Verse
Last Chorus
Solo

By: Johari Taylor
E-mail: viking@powerup.com



Comments