Thievery Corporation - Warning Shots Chords & Tabs

 

Warning Shots Chords & Tabs

Thievery Corporation Chords & Tabs

Version: 1 Type: Bass Tab 0 ratings
1 star 2 stars 3 stars 4 stars 5 stars
comments

Warning Shots Bass Tab

Band: Thievery Corporation
Album: The Cosmic Game
Song : Warning Shots (Feat. Sleepy Wonder)

Tabbed by SHAH

Standard tuning > GDAE

This Song is basicaly 3 riffs ..listen to the song for timing and stuff

Riff #1
[ Tab from: http://www.guitartabs.cc/tabs/t/thievery_corporation/warning_shots_btab.html ]
G-----------------------------|
D-----------------------------|
A-----5-5-5-3-5-5-5-0-3-------|
E-----------------------------|

Riff #2

G-----------------------------|
D-----------------------------|
A-----------5-5---------------|
E----5-3----------------------|

Riff #3

G-----------------------------|
D-----------3-5----3-5--------|
A--5----3--5------------------|
E-----------------------------|
Comments