Thievery Corporation - Un Simple Historie Chords & Tabs

 

Un Simple Historie Chords & Tabs

Thievery Corporation Chords & Tabs

Version: 1 Type: Bass Tab 0 ratings
1 star 2 stars 3 stars 4 stars 5 stars
comments

Un Simple Historie Bass Tab

Un Simple Historie (Richest Man in Babylon)

Main Riff

G -------7-7-9--------7-7-9-|
D 0---7--------0---7--------|
A --------------------------|
E --------------------------|
[ Tab from: http://www.guitartabs.cc/tabs/t/thievery_corporation/un_simple_historie_btab.html ]
That is the only riff throughout the whole song, but it is sometimes slightly varied:

G -------7-7-9--------7-7-9-|
D 0-7-7--------0-7-7--------|
A --------------------------|
E --------------------------|

Thankyou to Thievery Corporation for producing such a brilliant song and me for tabbing it.

Tabbed by Smellyjosh.
Comments