Thievery Corporation - Heavens Gonna Burn Your Eyes Chords & Tabs

 

Heavens Gonna Burn Your Eyes Chords & Tabs

Thievery Corporation Chords & Tabs

Version: 1 Type: Bass Tab 0 ratings
1 star 2 stars 3 stars 4 stars 5 stars
comments

Heavens Gonna Burn Your Eyes Bass Tab

Thievery Corporation: Heaven's gonna burn your eyes (Album: Richest man in babylon)

Tab Guide:
h = hammer on
\ = slide down

Intro


G 7h9--9--9-9-97--9-|
D -------------------|
A -------------------|
E -------------------|

Main Riff
[ Tab from: http://www.guitartabs.cc/tabs/t/thievery_corporation/heavens_gonna_burn_your_eyes_btab.html ]
G -------------------------|
D --------9\-------4---7-9-|
A 7---7--------2-----------|
E -------------------------|

Interlude

G --------7h9--9--9-9-97--9-|
D ---------------------------|
A 7--------------------------|
E ---------------------------|

Main Riff variation:

G --------------------------|
D --------9\-------4----7-9-|
A 7-7-7-7------2--2---------|
E --------------------------|
Comments